Oops, an error
Loading. Please wait.

Arrow Tab

version 1
version 1

Whole song

  • The original intro tab came from 'neonmuisc5000'.
64 views 9 this week
no commentswrite comment
1 2 3 4 5
3 more votes to show rating
add to favorites
launch autoscroll
font size
0
reset
how to read this tab
guitar tuner
Autoscroll
slow
fast
+/-
esc
set tempo
stop
Help us to improve Ultimate-Guitar.com Take our survey!
×
Author
Difficulty
intermediate
About this tab version
The original intro tab came from 'neonmuisc5000'. Was this info helpful? Yes No
[Intro]

e|-------------------------------------------------------------------------------------|
B|-------------------------------------------------------------------------------------|
G|--4-4-4-4-4-4-\6-6-\7-7-7-7-\11-11-11-11-/4-4-4-4-4-4-\6-6-\7-7-7-7-\11-11-11-11-----|
D|-------------------------------------------------------------------------------------|    2x
A|-------------------------------------------------------------------------------------|
E|-3-3-3-3-3-3-\5-5-\7-7-7-7-\10-10-10-10-/3-3-3-3-3-3-\5-5-\7-7-7-7-\10-10-10-10------|


[Verse]

e|-------------------------------------------------------------------------------------|
B|-------------------------------------------------------------------------------------|
G|--4-4-4-4-4-4-\6-6-\7-7-7-7-\11-11-11-11-/4-4-4-4-4-4-\6-6-\7-7-7-7-\11-11-11-11-----|
D|-------------------------------------------------------------------------------------|    2x
A|-------------------------------------------------------------------------------------|
E|-3-3-3-3-3-3-\5-5-\7-7-7-7-\10-10-10-10-/3-3-3-3-3-3-\5-5-\7-7-7-7-\10-10-10-10------|


[Bridge]

e|-------------------------------------------------|
B|-------------------------------------------------|
G|--7-7-7-7-/6-6-6-6-\12-12-12-12-/11-11-11-11-----|
D|-------------------------------------------------|    2x
A|-------------------------------------------------|
E|-7-7-7-7-/5-5-5-5-\12-12-12-12-/10-10-10-10------|


[Chorus]

e|------------------------------------------------------------------------------|
B|------------------------------------------------------------------------------|
G|-4--------4---\6---7--------\11--------/4--------4---\6---7--------\11--------|
D|------------------------------------------------------------------------------|   
A|------------------------------------------------------------------------------|
E|-3--------3---\5---7--------\10--------/3--------3---\5---7--------\10--------|


[Solo Guitar 1]

e|-------------------------------------------------------------------------------------------------|
B|-------------------------------------------------------------------------------------------------|
G|-14--11--/9--11--14------11--9--/7--9--11--4-----4--6--\7--\11--/7--/6--4--6--\7--\14--/11--\9---|
D|-------------------------------------------------------------------------------------------------|    2x
A|-------------------------------------------------------------------------------------------------|
E|-------------------------------------------------------------------------------------------------|


[Solo Guitar 1 {ver2}]

e|------------------------------------------------------------------------------|
B|-10--7-----7--10--7--7--/6-----6--7--------2--\3--\7----------------7--\10----|
G|--------9-------------------7--------4--4-----------7--6--4--\6--7------------|
D|------------------------------------------------------------------------------|    2x
A|------------------------------------------------------------------------------|
E|------------------------------------------------------------------------------|


[Solo Guitar 2] {Plays simultaneously with Solo Guitar 1} 

e|-------------------------------------------------------------------------------------|
B|-------------------------------------------------------------------------------------|
G|--4-4-4-4-4-4-\6-6-\7-7-7-7-\11-11-11-11-/4-4-4-4-4-4-\6-6-\7-7-7-7-\11-11-11-11-----|
D|-------------------------------------------------------------------------------------|   
A|-------------------------------------------------------------------------------------|
E|-3-3-3-3-3-3-\5-5-\7-7-7-7-\10-10-10-10-/3-3-3-3-3-3-\5-5-\7-7-7-7-\10-10-10-10------|


[Verse]

e|-------------------------------------------------------------------------------------|
B|-------------------------------------------------------------------------------------|
G|--4-4-4-4-4-4-\6-6-\7-7-7-7-\11-11-11-11-/4-4-4-4-4-4-\6-6-\7-7-7-7-\11-11-11-11-----|
D|-------------------------------------------------------------------------------------|    2x
A|-------------------------------------------------------------------------------------|
E|-3-3-3-3-3-3-\5-5-\7-7-7-7-\10-10-10-10-/3-3-3-3-3-3-\5-5-\7-7-7-7-\10-10-10-10------|


[Bridge]

e|-------------------------------------------------|
B|-------------------------------------------------|
G|--7-7-7-7-/6-6-6-6-\12-12-12-12-/11-11-11-11-----|
D|-------------------------------------------------|    2x
A|-------------------------------------------------|
E|-7-7-7-7-/5-5-5-5-\12-12-12-12-/10-10-10-10------|


[Chorus]

e|------------------------------------------------------------------------------|
B|------------------------------------------------------------------------------|
G|-4--------4---\6---7--------\11--------/4--------4---\6---7--------\11--------|
D|------------------------------------------------------------------------------|    2x
A|------------------------------------------------------------------------------|
E|-3--------3---\5---7--------\10--------/3--------3---\5---7--------\10--------|


[Bridge]

e|------------------------------------|
B|------------------------------------|
G|-4--------4---\6---7--------\11-----|
D|------------------------------------|    3x
A|------------------------------------|
E|-3--------3---\5---7--------\10-----|

e|-----------------------------------------|
B|-----------------------------------------|
G|-4--------4---\6---7--------\11/9---14---|
D|-----------------------------------------|    
A|-----------------------------------------|
E|-3--------3---\5---7--------\10-----14---|


Strumming:

e|-3-------5-------7-------10|
B|-3-------5-------7-------10|
G|-4-------6-------7-------11|
D|-5-------7-------9-------12| 
A|-5-------7-------9-------12|    4x
E|-3-------5-------7-------10|


[Outro]

e|------------------------------------------------------------------------------|
B|------------------------------------------------------------------------------|
G|-4--------4---\6---7--------\11--------/4--------4---\6---7--------\11--------|
D|------------------------------------------------------------------------------|
A|------------------------------------------------------------------------------|
E|-3--------3---\5---7--------\10--------/3--------3---\5---7--------\10--------|



| /   Slide up
| \   Slide down


Not 100% sure on the strumming chords. Any recommendations for corrections are much appreciated. 
Suggest correction
Give kudos to tab author, rate the tab!
1 2 3 4 5
comments
print report bad tab
guest
You may want to rate the tab now too:
select rating
Wanna post a correction for this tab? Suggest correction