Oops, an error
Loading. Please wait.

First tab

105 views 1 this week
no commentswrite comment
1 2 3 4 5
3 more votes to show rating
add to favorites
×
Save as Personal and add changes to this tab that will be seen only by you. Learn more ›
×
You can save this tab as Personal to edit and correct it or add notes. All changes will be seen only by you. Learn more »
launch autoscroll
font size
0
reset
how to read this tab
guitar tuner
edit
Autoscroll
slow
fast
+/-
esc
set tempo
stop
Author
    Song Title:      Una
  Performed By:      Sponge Cola
From The Album:      Palabas
     Tabbed by:      Ralph Ernest De Guzman
                     Colegio San Agustin Southwoods
	             15 Yrs. Old
	             3rd Year Student
         Email:      jnxxx777@yahoo.com
      Cell No.:      09202412886/09063646020


This song is Another Great Song By sponge cola...
Astig talaga... This Is For AngELi bLaNco Of CSA - Southwoods!!
LuV nA Po KitA AnGeLi!!!


Tuning: Half-Step Down



Chords Used:


    C5    BM7   C#7    D9    B     D    D/C#
eb|--0--|--2--|--x--|--x--|--x--|--x--|--X--|
Bb|--3--|--3--|--x--|--x--|--x--|--x--|--X--|
Gb|--0--|--2--|--6--|--7--|--4--|--7--|--7--|
Db|--0--|--2--|--x--|--x--|--4--|--7--|--7--|
Ab|--3--|--2--|--4--|--5--|--2--|--5--|--4--|
Eb|--x--|--x--|--x--|--x--|--x--|--x--|--X--|


iNTRO:(QUICK PLUCKING)


eb|-----7---7-------7---7-------7---|
Bb|---8---8---8---8---8---8---8---8-|
Gb|-9-----------9-----------9-------|
Db|---------------------------------|
Ab|---------------------------------|
Eb|---------------------------------|

eb|----7---7-------7---7-------7----|
Bb|--7---7---7---7---7---7---7---7--|
Gb|7-----------7-----------7--------|
Db|---------------------------------|
Ab|---------------------------------|
Eb|---------------------------------|

eb|-----7---7---7---8---8---10---10---|
Bb|---8---8---8---8---8---8----8----8-|
Gb|-9---------------------------------|
Db|-----------------------------------|
Ab|-----------------------------------|
Eb|-----------------------------------|


eb|----7---7-------8-----------7----|
Bb|--7---7---7---7---7---7----------|
Gb|7-----------7-------7------------|
Db|---------------------------------|
Ab|---------------------------------|
Eb|---------------------------------|




Stanza I:(Clean/Nylon String guitar)

C5            BM7
muli namang umihip sa akin

    C5            BM7
ang hangin ng pagiisa

 C5            BM7
liwanag kang dagling sumilaw

   C5            BM7
sa aking mga mata



Pre-Chorus:(Clean/Nylon String guitar)

C5            BM7
linilingon, sinusundan

  C5          BM7
dumadalas ang minsan

 C5            BM7
ika'y naryan, abot tanaw

  C5              BM7
kahit walang dahilan


Chorus:(Distortion)

          C5
maiiwasan ba

                    BM7 
ang bawat sandaling ika'y laman ng isip ko

           C5
(maiiwasan bang)

                    BM7
ngayo'y lilipas ng hindi kita nasisilayan

             C5
(magkamali sa'yo)

                 BM7
nararapat bang pigilan ang damdamin na

           C5
(maiiwasan bang)

                   BM7
lalong mahulog sa iyo



Stanza II:(Clean/Nylon String guitar)

C5          BM7         C5              BM7
walang maitutulad sa sumpang iyong linikha

C5              BM7       C5              BM7
putulin man ang tali ay sadyang walang kawala


PRE-CHORUS II:(DISTORTION)

   C#7           D9
sa pagkaakit, at di paglapit

  C#7            D9
nananalangin, at umaasang



cHORUS:(DISTORTION)

          C5
maiiwasan ba

                    BM7 
ang bawat sandaling ika'y laman ng isip ko

           C5
(maiiwasan bang)

                    BM7
ngayo'y lilipas ng hindi kita nasisilayan

             C5
(magkamali sa'yo)

                 BM7
nararapat bang pigilan ang damdamin na

           C5
(maiiwasan bang)

                   BM7
lalong mahulog sa iyo






AD-LIB: B - D - D/C#






cHORUS:(DISTORTION)

          C5
maiiwasan ba

                    BM7 
ang bawat sandaling ika'y laman ng isip ko

           C5
(maiiwasan bang)

                    BM7
ngayo'y lilipas ng hindi kita nasisilayan

             C5
(magkamali sa'yo)

                 BM7
nararapat bang pigilan ang damdamin na

           C5
(maiiwasan bang)

                   BM7
lalong mahulog sa iyo




C5
hindi padadala

BM7
hinding hindi padadala

C5          BM7
hindi padadala... 





That's It!!!
This Song Is Really Good!
This Is For my One And Only AnGeLi...
Luv Na Talaga Kita...
Hi To My Band Mates: Karen, Nico, Adrian And Migz
PreSs2PlaY!!! NeVer QuiTs!
Hi Din Sa lAhAt Ng TaGa-CSA Southwoods...
Quetsions??? Comments???
Email, Text Or send me a message in friendster or YM!!!


| /  slide up
| \  slide down
| h  hammer-on
| p  pull-off
| ~  vibrato
| +  harmonic
| x  Mute note
===============================================================================

            
            
Suggest correction
Creating personal tab
Creating personal tab
You can edit any tab online and save it as your Personal.

You can edit, replace or remove any tab part or add personal notes – all changes will be seen only by you.

Personal tabs can be accessed anytime from any device, even offline.
Learn more »
Give kudos to tab author, rate the tab!
1 2 3 4 5
comments
print report bad tab
guest
You may want to rate the tab now too:
select rating
Wanna post a correction for this tab? Suggest correction