Oops, an error
Loading. Please wait.

Listen tab

version 1
version 1

Whole song

2,565 views 6 this week
no commentswrite comment
1 2 3 4 5
3 more votes to show rating
add to favorites
×
Save as Personal and add changes to this tab that will be seen only by you. Learn more ›
×
You can save this tab as Personal to edit and correct it or add notes. All changes will be seen only by you. Learn more »
launch autoscroll
font size
0
reset
how to read this tab
guitar tuner
edit
Autoscroll
slow
fast
+/-
esc
set tempo
stop
Author
Difficulty
SORRY for the nth time! 
This is the so much better!

More correctionsSong: Listen
Artist: Stonefree
Transcribed by: Daniel C. Lachica Jr.
Address: University of the Philippines, Diliman, Quezon City

Info.: BS COMsci
Addy: djlachix@yahoo.com; djlachix@hotmail.com



************************************************************************
========================================================================
************************************************************************

STANDARD TUNING

Intro and verse: 


e|----------------------------------3-----------------------------------|
B|-------3--------3---------3-------3---3----3--------------------------|
G|-----0--------0-----0---0------0--------0-----------------------------|
D|--2-------2s4---------4------------------2----------------------------|
A|-----------------------------3----------------------------------------|
E|----------------------------------------------------------------------|

Chorus:

   Cadd9   Dadd9        G/B      Cadd9
e|--3---------5---------3---------3------------------------------------|
B|--3---------5---------3---------3------------------------------------|
G|--x---------x---------0---------x------------------------------------|
D|--2---------3---------x---------2------------------------------------|
A|--3---------4---------2---------3------------------------------------|
E|--x------------------------------------------------------------------|


Lead:

e|----------------------------------------------------------------------|
B|----------------------------------------------------------------------|
G|---7---5--4---5--4--------------7----5--4--5---4----------------------|
D|--------------------5---5---5-------------------5--4---0--2--4--5-----|
A|----------------------------------------------------------------------|
E|----------------------------------------------------------------------|



e|----------------------------------------------------------------------|
B|----------------------------------------------------------------------|
G|---7---5--4---5--4--------------7----5--4--5--4-----------------------|
D|--------------------5---5---5-------------------5--5---5s7------------|
A|----------------------------------------------------------------------|
E|----------------------------------------------------------------------|

e|--------------------------------------------------19----17-------17---|
B|------8-----10------8-------10----------------------------------------|
G|----------------------------------7----7----5-----------------19------|
D|---7-----7-------7------7---------7----7----5-------------------------|
A|----------------------------------5----5----3-------------------------|
E|----------------------------------------------------------------------|

e|------15----------------------------19------17--------15--------------|
B|--------------15s17--------------------------------------------15s17--|
G|--19------19---------7--7--5---19------19-------19-------19-----------|
D|---------------------7--7--5------------------------------------------|
A|---------------------5--5--3------------------------------------------|
E|----------------------------------------------------------------------|

e|----19---17--------17------------15-----------------------------------|
B|-------------------------------------------15s17----------------------|
G|--------------19----------19---------19------------7---7----5---5-----|
D|---------------------------------------------------7---7----5---5-----|
A|---------------------------------------------------5---5----3---3-----|
E|----------------------------------------------------------------------|

            
            
Suggest correction
Creating personal tab
Creating personal tab
You can edit any tab online and save it as your Personal.

You can edit, replace or remove any tab part or add personal notes – all changes will be seen only by you.

Personal tabs can be accessed anytime from any device, even offline.
Learn more »
Give kudos to tab author, rate the tab!
1 2 3 4 5
comments
print report bad tab
guest
You may want to rate the tab now too:
select rating
Wanna post a correction for this tab? Suggest correction