Oops, an error
Loading. Please wait.

Barricades Tab

539 views 1 this week
no commentswrite comment
1 2 3 4 5
please rate
add to favorites
launch autoscroll
font size
0
reset
how to read this tab
guitar tuner
Tab Pro tools
  • play this tab
  • loop segment
  • change instrument
  • show fretboard
  • metronome
×
Best way to learn
"Barricades"
Autoscroll
slow
fast
+/-
esc
set tempo
stop
Contributor
Tuning
D A D G B E
Artist: Stonegard
Song: Barricades
Album: Arrows
Tuning: Drop D (DADGBe)
Tabbed by: Dante's Inferno

Update: fixed the mistakes. 

Riff 1:       Riff 2:
|-------|---------------------------------------------------------|
|-------|---------------------------------------------------------|
|-------|---------------------------------------------------------|
|-2-----|---------------------------------------------------------|
|-2-----|-----2-3--3-2----------2-3--3-2--------------------------|
|-2-----|-2-4----------4-2--2-4----------0------------------------|

Riff 3 
|-----------------------------------------------------------------|
|-----------------------------------------------------------------|
|-----------------------------------------------------------------|
|-----------------------------------------------------------------|
|-----------------------------------------------------------3-2---|
|-0-0-2-2-3-0-0-2-2-3-0-0-2-2-3-0-0-2-2-3-00223-00223-00223-----0-|
PM                                        ..... ..... .....

Riff 4
|-----------------------------------------------------------------|
|-----------------------------------------------------------------|
|-----------------------------------------------------------------|
|-----------------------------------------------------------------|
|-2-2------4-4------5-5------4----5-------------------------------|
|-2-2-0000-4-4-0000-5-5-0000-4-00-5-----------------------.-------|
PM    ....     ....     ....   ..

Riff 5
|-----------------------------------------------------------------|
|-----------------------------------------------------------------|
|-----------------------------------------------------------------|
|-----------------------------------------------------------------|
|-----------------------------------------------------------------|
|-000000000000000000000000000000000000000000000000000-------------|
PM...................................................

Riff 6
|-----------------------------------------------------------------|
|-----------------------------------------------------------------|
|-----------------------------------------------------------------|
|-----------------------------------------------------------------|
|-0-0-0-0-0-0-0-2/3-0-0-0-0-0-0-----2-3-0-0-0-0-0-0-3-2-----------|
|-0-0-0-0-0-0-0-2/3-0-0-0-0-0-0-2-4-----0-0-0-0-0-0-----4-2-------|
PM. . . . . . .     . . . . . .         . . . . . .

|-----------------------------------------------------------------|
|-----------------------------------------------------------------|\
|-----------------------------------------------------------------| \
|--------------------00000000000000000000-------------------------|  | Guitar 1
|-0-0-0-0-0-0-----2-----------------------------------------------|  |
|-0-0-0-0-0-0-2-4-------------------------------------------------|  |
PM. . . . . .                                                     |  |
                                                                  |  |
|-----------------------------------------------------------------|  |
|-----------------------------------------------------------------|  |
|-----------------------------------------------------------------|  | Guitar 2
|-------------------------666666666666666-------------------------| /
|-0-0-0-0-0-0-----2-----------------------------------------------|/
|-0-0-0-0-0-0-2-4-------------------------------------------------|
PM. . . . . .

Repeat riff 4&5

Riff 7
|-----------------------------------------------------------------|
|-----------------------------------------------------------------|\
|-----------------------------------------------------------------| \
|----------0-0-00-00-00-0-0-0-0-00-00-00-0-0----------------------|  | Guitar 1
|-0-0-0-0---------------------------------------------------------|  |
|-0-0-0-0---------------------------------------------------------|  |
PM. . . .                                                         |  |
                                                                  |  |
|-----------------------------------------------------------------|  |
|-----------------------------------------------------------------|  |
|-----------------------------------------------------------------|  | Guitar 2
|---------------------------3-3-33-33-33-3-3----------------------| /
|-0-0-0-0---------------------------------------------------------|/
|-0-0-0-0---------------------------------------------------------|
PM. . . .

Riff 8 
|-----------------------------------------------------------------|
|-----------------------------------------------------------------|
|-----------------------------------------------------------------|
|-----------------------------------------------------------------|
|-----------------------------------------------------------------|
|-0-0-00-00-00-0-0------------------------------------------------|
PM. . .. .. .. . .

Solo fill
|-----------------------------------------------------------------|
|-----10--12-12-12-12-11-9-12-11-9--12--11--9---------------------|
|-7/9-------------------------------------------------------------|
|-----------------------------------------------------------------|
|-----------------------------------------------------------------|
|-----------------------------------------------------------------|

Riff 9
|-----------------------------------------------------------------|
|-----------------------------------------------------------------|
|-----------------------------------------------------------------|
|-------------------------------5-5-5-----------------------------|
|-----2-3--5-2----------2-3-----3-3-3-----------------------------|
|-2-4----------2-0--0-2------00-----------------------------------|
PM                           ..

Repeat riff 4&5

Riff 10
|-----------------------------------------------------------------|
|-----------------------------------------------------------------|
|-----------------------5--5--------------------------------------|
|-----------------------5--5--------------------------------------|
|-0-0-0-0---------------3--3--------------------------------------|
|-0-0-0-0-00-00-00-00---------------------------------------------|
PM. . . . .. .. .. ..

Riff 11                                               1.   2.
|----------------------------------------------------|----|-------|
|----------------------------------------------------|----|-------|
|----------------------------------------------------|----|-------|
|----------------------4--5--------------------------|-5--|-5/3---|
|----------------------2--3--------------------------|-3--|-3/1---|  
|-0-0-0-00-00-00-0-0-0------0-0-0-000000-0-0-0-0-0-0-|----|-------|
PM. . . .. .. .. . . .      . . . . . .. . . . . . .
                                                         
Riff 12
|-----------------------------------------------------------------|
|-----------------------------------------------------------------|
|-----------------------------------------------------------------|
|----------------------------2-2---4------------------------------|
|-0-0------------------------0-0-0-2------------------------------|
|-0-0------0-0-00-00-00-0-0------0--------------------------------|
PM. .      . . .. .. .. . . 

Repeat riff 4 (x1)

Riff 13
|-----------------------------------------------------------------|
|-----------------------------------------------------------------|
|--------------5--------------------------------------------------|
|--------------5--------------------------------------------------|
|--------------3--------------------------------------------------|
|-000000000000----------------------------------------------------|
PM............

Riff 14
|-----------------------------------------------------------------|
|-----------------------------------------------------------------|
|-555555222444----------------------------------------------------|
|-555555222444----------------------------------------------------|
|-333333000222----------------------------------------------------|
|--------------0-0-00-00-00-0-0-0-0-00-00-00-0-0------------------|
PM             . . .. .. .. . . . . .. .. .. . . 

Riff 15
|-----------------------------------------------------------------|
|-----------------------------------------------------------------|
|-5--4--2---------------------------------------------------------|
|-5--4--2---------------------------------------------------------|
|-3--2--0--0-0-0-0-------0----------------------------------------|
|----------0-0-0-0-00-00-0----------------------------------------|
PM         . . . . .. .. .
comments
We did not receive enough feedback on this tab! Please rate:
print report bad tab
1 2 3 4 5
I want to post or [tab]
guest
You may want to rate the tab now too:
select rating
Please do not post tabs as comments. Select "correction" instead!