Oops, an error
Loading. Please wait.

Ghost Circles Tab

version 1
version 1

Whole song

Interactive

460 views 1 this week
no commentswrite comment
1 2 3 4 5
please rate
add to favorites
launch autoscroll
font size
0
reset
how to read this tab
guitar tuner
Autoscroll
slow
fast
+/-
esc
set tempo
stop
Help us to improve Ultimate-Guitar.com Take our survey!
×
Author
Artist: Stonegard
Song: Ghost Circles
Album: Arrows
Tuning: CGDGBe
Tabbed by: Herman Wildhagen, herman@wildhagen.no


Riff 1:
Guitar 3:
e|-------------6-----------
B|-------------------------
G|-8-7-8-7-8-7---7-8-7-8-7-   x4
D|-------------------------
G|-------------------------
C|-------------------------

Riff 2:
Guitar 1:
e|------------------------------------------------- \
B|-------------------------------------------------  \
G|-------------------------------------------------  |
D|-------------------------------------------------  |
G|-5-----------3-----------------------------------  |
C|-------------------------1-----------3-----5-----  |
                                                     |
Guitar 2:                                            |
e|-------------------------------------------------  |
B|-------------------------------------------------  |
G|-------------------------------------------------  |   x4
D|-------------------------------------------------  |
G|-8-----------0-----------3-----------5-----6-----  |
C|-------------------------------------------------  |
                                                     |
Guitar 3:                                            |
e|-------------6-----------------------3-----------  |
B|-------------------------------------------------  |
G|-8-7-8-7-8-7---7-8-7-8-7-6-5-6-5-6-5---5-6-5-6-5-  |
D|-------------------------------------------------  |
G|-------------------------------------------------  /
C|------------------------------------------------- /

Riff 3:
Guitar 1:
e|------------------------------ \
B|------------------------------  \
G|------------------------------  |
D|------------------------------  |
G|-5-5-----5-5-----5-5----5-----  |
C|---------------------------6\-  |
                                  |
Guitar 2:                         |
e|------------------------------  |
B|------------------------------  |
G|------------------------------  |
D|------------------------------  |
G|-----55------55------5--------  /
C|---------------------------6\- /

Riff 4:
Guitar 1 and Guitar 2:
e|--------------------------------------------------
B|--------------------------------------------------
G|--------------------------------------------------
D|-------------4-4----------------------4\----------
G|-0-000-0-00005-5-00-0-000-0-000-0-00005\-00-0-000-
C|-0-000-0-0000----00-0-000-0-000-0-0000---00-0-000-
   . ... . ....    .. . ... . ... . ....   .. . ...

Riff 4:
Guitar 1:
e|-------------------------------------------------- \
B|--------------------------------------------------  \
G|--------------------------------------------------  |
D|-------------4-4----------------------4\----------  |
G|-0-000-0-00005-5-00-0-000-0-000-0-00005\-00-3-0-0-  |
C|-0-000-0-0000----00-0-000-0-000-0-0000---00---0-0-  |
   . ... . ....    .. . ... . ... . ....   ..   . .   |
                                                      |
Guitar 2:                                             |
e|--------------------------------------------------  |
B|--------------------------------------------------  |
G|--------------------------------------------------  |
D|-------------4-4----------------------4\----------  |
G|-0-000-0-00005-5-00-0-000-0-000-0-00005\-00-8-0-0-  /
C|-0-000-0-0000----00-0-000-0-000-0-0000---00---0-0- /
   . ... . ....    .. . ... . ... . ....   ..   . .

Riff 5:
Guitar 1:
e|---------------------------------------------------- \
B|----------------------------------------------------  \
G|----------------------------------------------------  |
D|----------------------------------------------------  |
G|-5-555-5-55553-333-3-3333---------------------------  |
C|-------------------------1-111-1-11111/3333-3/55555-  |
                                                        |
Guitar 2:                                               |
e|----------------------------------------------------  |
B|----------------------------------------------------  |
G|----------------------------------------------------  |
D|----------------------------------------------------  |
G|-8-----------0-----------3-----------5------6-------  /
C|---------------------------------------------------- /

Riff 6:
Guitar 1:
e|---------------------------------------------------------------- \
B|----------------------------------------------------------------  \
G|----------------------------------------------------------------  |
D|----------------------------------------------------------------  |
G|-5-555-5-555-3-333-3-333----------------------------------------  |
C|-------------------------1-111-1-111-1/3333-3/555---------------  |
                                                                    |
Guitar 2:                                                           |
e|----------------------------------------------------------------  |
B|----------------------------------------------------------------  |
G|----------------------------------------------------------------  |
D|----------------------------------------------------------------  |
G|-8-888-8-888-10-101010-10-101010-3-333-3-333-3/5555-5/666-------  |
C|----------------------------------------------------------------  |   x2
                                                                    |
Guitar 3:                                                           |
e|--------------------------------------                            |
B|--------------------------------------                            |
G|-8-888-8-88888/10101010-10-1010101010/                            |
D|-x-xxx-x-xxxxx/x-x-x-x--x--x-x-x-x-x-/                            |
G|-8-888-8-88888/10101010-10-1010101010/                            |
C|--------------------------------------                            |
                                                                    |
Guitar 3:                                                           |
e|-------------------------------------------                       |
B|-------------------------------------------                       |
G|-13131313-13-1313131313/15151515-15/181818-                       |
D|-x-x-x-x--x--x-x-x-x-x-/x-x-x-x--x--x-x-x--                       |
G|-13131313-13-1313131313/15151515-15/181818-                       /
C|-------------------------------------------                      /

Riff 7:
Guitar 1 and Guitar 2:
e|------------------------------------------------- \
B|-------------------------------------------------  \
G|-------------------------------------------------  |
D|-------------------------4\----4\----4\----4\----  |
G|-0-000-0-000-0-000-0-00005\000-5\000-5\000-5\000-  |
C|-0-000-0-000-0-000-0-0000--000---000---000---000-  |
   . ... . ... . ... . ....  ...   ...   ...   ..    |
                                                     |
Guitar 3:                                            |
e|-------------6-----------------------6-----------  |
B|-------------------------------------------------  |
G|-8-7-8-7-8-7---7-8-7-8-7-8-7-8-7-8-7---7-8-7-8-7-  |
D|-------------------------------------------------  |
G|-------------------------------------------------  /
C|------------------------------------------------- /

Riff 1:
Guitar 3:
e|-------------6-----------
B|-------------------------
G|-8-7-8-7-8-7---7-8-7-8-7-   x4
D|-------------------------
G|-------------------------
C|-------------------------


End.


| /      slide up
| \      slide down
| t.g.   to gether
| .      palm mute
| b      bend
| ~      vibrato
| h      hammer on
| p      pull off
| x      muted note
Suggest correction
What's this?
You can suggest a correction to this tab. Community and Mods will review your correction and vote to approve or reject it.
comments
We did not receive enough feedback on this tab! Please rate:
print report bad tab
1 2 3 4 5
guest
You may want to rate the tab now too:
select rating
Please do not post tabs as comments. Select "correction" instead!