Oops, an error
Loading. Please wait.

Hunter Tab

version 1
version 1

Whole song

Interactive

333 views 1 this week
no commentswrite comment
1 2 3 4 5
accurate
x 3
add to favorites
launch autoscroll
font size
0
reset
how to read this tab
guitar tuner
Autoscroll
slow
fast
+/-
esc
set tempo
stop
Help us to improve Ultimate-Guitar.com Take our survey!
×
Difficulty
intermediate
Tabbed by Herman Wildhagen.


h - hammer on
p - pull off
t.g. - to gether
(0) - muted


Intro:

Guitar 1:
e|------------------------------------------\
B|------------------------------------------ \
G|------------------------------------------  \
D|------------------------------------------   \
G|-0--3--5--6-0-3-5-1-0-3-5-6-0-3-5-1-0-3-5-    \
C|-0--3--5--6-0-3-5-1-0-3-5-6-0-3-5-1-0-3-5-     \
                                                  \ t.g.
Guitar 2:                                         /
e|------------------------------------------     /
B|------------------------------------------    /
G|------------------------------------------   /
D|------------------------------------------  /
G|-0--3--5--6---------------6---------0-3-5- /
C|-0--3--5--6---------------6---------0-3-5-/

Guitar 1, Guitar 2:
e|-----------------      -------------------
B|-----------------      -------------------
G|-----------------      -------------------
D|-----------------  x3  -------------------
G|-6-0-3-5-1-0-3-5-      -6-0-3-5-(0-0-0-0)-
C|-6-0-3-5-1-0-3-5-      -6-0-3-5-(0-0-0-0)-

Guitar 1, Guitar 2:
e|-----------------      -----------
B|-----------------      -----------
G|-----------------      -----------
D|-----------------  x7  -----------
G|-6-0-3-5-1-0-3-5-      -6-0-3-5-0-
C|-6-0-3-5-1-0-3-5-      -6-0-3-5-0-

Guitar 1, Guitar 2:
e|------------------------------------------------
B|------------------------------------------------
G|------------------------------------------------
D|------------------------------------------------
G|-----3-----5-----6-----5-----8-----7-----4----5-
C|-(0)-3-(0)-5-(0)-6-(0)---(0)---(0)---(0)---(0)--

Guitar 1, Guitar 2:
e|-------------------------------
B|-------------------------------
G|-------------------------------
D|-------------------------------
G|-5-5-5-5-5--5-5/8-8-8-8--8-8-8-
C|-5-5-5-5-5--5-5/8-8-8-8--8-8-8-

Guitar 1, Guitar 2:
e|------------------------------------------------
B|------------------------------------------------
G|------------------------------------------------
D|------------------------------------------------
G|-----3-----5-----6-----5-----8-----7-----4----5-
C|-(0)-3-(0)-5-(0)-6-(0)---(0)---(0)---(0)---(0)--

Guitar 1, Guitar 2:
e|--------------------------   ------------
B|--------------------------   ------------
G|--------------------------   ------------
D|--------------------------   ------------
G|-5-5-5-5-5--5-5/8-8-8-8-8-   -(0)-3-5-6\-
C|-5-5-5-5-5--5-5/8-8-8-8-8-   -(0)-3-5-6\-

Guitar 1, Guitar 2:
e|-----------------      -------------------
B|-----------------      -------------------
G|-----------------      -------------------
D|-----------------  x3  -------------------
G|-6-0-3-5-1-0-3-5-      -6-0-3-5-(0-0-0-0)-
C|-6-0-3-5-1-0-3-5-      -6-0-3-5-(0-0-0-0)-

Guitar 1: 
e|-------
B|-------
G|-------
D|-----4-
G|-5-----
C|-------

Guitar 1, Guitar 2: 
e|---
B|---
G|---
D|---  x14
G|-0-
C|-0-

Guitar 1, Guitar 2:
e|------------------------------------------------
B|------------------------------------------------
G|------------------------------------------------
D|------------------------------------------------
G|-----3-----5-----6-----5-----8-----7-----4----5-
C|-(0)-3-(0)-5-(0)-6-(0)---(0)---(0)---(0)---(0)--

Guitar 1, Guitar 2:
e|-------------------------------
B|-------------------------------
G|-------------------------------
D|-------------------------------
G|-5-5-5-5-5--5-5/8-8-8-8--8-8-8-
C|-5-5-5-5-5--5-5/8-8-8-8--8-8-8-

Guitar 1, Guitar 2:
e|------------------------------------------------
B|------------------------------------------------
G|------------------------------------------------
D|------------------------------------------------
G|-----3-----5-----6-----5-----8-----7-----4----5-
C|-(0)-3-(0)-5-(0)-6-(0)---(0)---(0)---(0)---(0)--

Guitar 1, Guitar 2:
e|---------------------------
B|---------------------------
G|---------------------------
D|---------------------------
G|-5-5-5-5-5--5-5/8-8-8-8-~~-
C|-5-5-5-5-5--5-5/8-8-8-8-~~-

Guitar 1:
e|---------------------------------------------------------
B|---------------------------------------------------------
G|---------------------------------------------------------
D|------------------------------------------ bend up to 6 -
G|-0--5~~-0--5---------------------8~~-1-----5^------------
C|-0------0----3-(0)-5-(0)-6~~-(0)-----1—(0)---------------

Guitar 1:
e|---------------------------------------------------
B|---------------------------------------------------
G|---------------------------------------------------
D|------------------------------------------8-10-11\-
G|-----------------5-----8-----10-11-12--------------
C|-0-3-(0)-5-(0)-6---(0)---(0)----------(0)----------

Guitar 1:
e|----------------------------------------------------------\
B|---------------------------------------------------------- \
G|------8---------------------- bend slow up to 10 and hold - \
D|-11~~---11h13p11-10h11p10-8--9^----------------------------  \
G|----------------------------------------------------------    \
C|----------------------------------------------------------     \
                                                                  \
Guitar 2:                                                          \  t.g.
e|-------------------------------------------                      /
B|-------------------------------------------                     /
G|-------------------------------------------                    /
D|---------------------------- bend up to 6 -                   /
G|------8~---------------------5^------------                  /
C|-6------------------------1----------------                 /

Guitar 1:
e|----
B|----
G|-12-
D|-10-  x16
G|----
C|----                                    

Guitar 1:
e|----                               \
B|----                                \
G|-12-                                 \
D|-10-  x24                             \
G|----                                   \
C|----                                    \
                                           \ t.g.
Guitar 2:                                  /
e|--------------------------------        /
B|--------------------------------       /
G|--------------------------------      /
D|--------------------------------  x3 /
G|---3---5---6---5---8---7---4--5-    /
C|-0-3-0-5-0-6-0---0---0---0---0--   /

Guitar 2:
e|---       ---
B|---       ---
G|---       ---
D|---  x16  ---  x15
G|-5-       -1-
C|-5-       -1-

Guitar 1, Guitar 2:
e|---------------------------------
B|---------------------------------
G|---------------------------------
D|---------------------------------
G|-0--3---5---6---5---8---7---4--5-
C|-0--3-0-5-0-6-0---0---0---0---0--

Guitar 1, Guitar 2:
e|-----------------------------
B|-----------------------------
G|-----------------------------
D|-----------------------------
G|-5-5-5-5-5--5-5/8-8-8-8--8-8-
C|-5-5-5-5-5--5-5/8-8-8-8--8-8-

Guitar 1, Guitar 2:
e|---------------------------------
B|---------------------------------
G|---------------------------------
D|---------------------------------
G|-0--3---5---6---5---8---7---4--5-
C|-0--3-0-5-0-6-0---0---0---0---0--

1
Guitar 2:
e|--------------------------------------------------------------
B|--------------------------------------------------------------
G|--------------------------------------------------------------
D|--------------------------------------------------------------
G|-5-5-5-5-5--5-5/8-8-8-8--8-8-8--5-5-5-5-5-5-5/8-8-8-8-8-8-8-8\
C|-5-5-5-5-5--5-5/8-8-8-8--8-8-8--5-5-5-5-5-5-5/8-8-8-8-8-8-8-8\

2
Guitar 2:
e|----------------------------
B|----------------------------
G|----------------------------
D|----------------------------
G|-5-5-5-5-5--0-1-1-1-1-1-1-1-
C|-5-5-5-5-5--0-1-1-1-1-1-1-1-

Outro:

3
Guitar 2:
e|-------------------------------------------------------------------------
B|-------------------------------------------------------------------------
G|-------------------------------------------------------------------------
D|-------------------------------------------------------------------------
G|0--(0)-(0)-(0)-(0)(0)(0)--(0)-(0)¬-(0)-(0)(0)(0)--(0)-(0)-(0)-(0)(0)(0)--
C|0--(0)-(0)-(0)-(0)(0)(0)--(0)-(0)¬-(0)-(0)(0)(0)--(0)-(0)-(0)-(0)(0)(0)--

4
Guitar 2:
e|-------------------------------------
B|-------------------------------------
G|-------------------------------------
D|-------------------------------------
G|-(0)-(0)-(0)-(0)(0)--(0)-(0)-(0)-(0)-
C|-(0)-(0)-(0)-(0)(0)--(0)-(0)-(0)-(0)-

Play this on the top of 1,2,3 and 4.
Guitar 1:
e|----     ----
B|----     ----
G|-12-     -11-
D|-10- and -10- repeat many times.
G|----     ----
C|----     ----

End!

I’m not sure about when guitar 1 and when guitar 2 is playing, but I’m hope it’s right.
Enjoy the song!:)

Suggest correction new What's this?
You can suggest a correction to this tab. Community and Mods will review your correction and vote to approve or reject it.
comments
We did not receive enough feedback on this tab! Please rate:
print report bad tab
1 2 3 4 5
guest
You may want to rate the tab now too:
select rating
Please do not post tabs as comments. Select "correction" instead!