Oops, an error
Loading. Please wait.

Hunter Tab

version 2
version 2

Whole song

Interactive

414 views 1 this week
no commentswrite comment
1 2 3 4 5
please rate
add to favorites
launch autoscroll
font size
0
reset
how to read this tab
guitar tuner
Autoscroll
slow
fast
+/-
esc
set tempo
stop
Help us to improve Ultimate-Guitar.com Take our survey!
×
Author
Difficulty
intermediate
                                    Hunter                                      


                                                                       Stonegard
Gitar 1



     |----------------3----------------|                 
     W                W                W                 
D||-----------------------------------------------------|
A||-----------------------------------------------------|
F||-----------------------------------------------------|
C||--0----------------3----------------5----------------|
G||--0----------------3----------------5----------------|
C||--0----------------3----------------5----------------|


  E  E  E  E  E  E  E  E     E  E  E  E  E  E  E  E   
--------------------------|--------------------------|
--------------------------|--------------------------|
--------------------------|--------------------------|
--------------------------|--------------------------|
--6--0--3--5--1--0--3--5--|--6--0--3--5--1--0--3--5--|
--6--0--3--5--1--0--3--5--|--6--0--3--5--1--0--3--5--|


    E  E  E  E  E  E  E  E   3x  E  E  E  E  E  E  E  E   
|----------------------------||--------------------------|
|----------------------------||--------------------------|
|*--------------------------*||--------------------------|
|*--------------------------*||--------------------------|
|---6--0--3--5--1--0--3--5---||--6--0--3--5--1--0--0--0--|
|---6--0--3--5--1--0--3--5---||--6--0--3--5--1--0--0--0--|


  E  E  E  E  E  E  E  E     E  E  E  E  E  E  E  E   
--------------------------|--------------------------|
--------------------------|--------------------------|
--------------------------|--------------------------|
--------------------------|--------------------------|
--6--0--3--5--1--0--3--5--|--6--0--3--5--1--0--3--5--|
--6--0--3--5--1--0--3--5--|--6--0--3--5--1--0--3--5--|


  E  E  E  E  E  E  E  E     E  E  E  E  E  E  E  E   
--------------------------|--------------------------|
--------------------------|--------------------------|
--------------------------|--------------------------|
--------------------------|--------------------------|
--6--0--3--5--1--0--3--5--|--6--0--3--5--1--0--3--5--|
--6--0--3--5--1--0--3--5--|--6--0--3--5--1--0--3--5--|


  E  E  E  E  E  E  E  E     E  E  E  E  E  E  E  E   
--------------------------|--------------------------|
--------------------------|--------------------------|
--------------------------|--------------------------|
--------------------------|--------------------------|
--6--0--3--5--1--0--3--5--|--6--0--3--5--1--0--3--5--|
--6--0--3--5--1--0--3--5--|--6--0--3--5--1--0--3--5--|


                                                       PM    PM    PM    PM     
  E  E  E  E  E  E  E  E     E  E  E  E  E  E  Q       E  E  E  E  E  E  E  E   
--------------------------|----------------------|--------------------------|
--------------------------|----------------------|--------------------------|
--------------------------|----------------------|--------------------------|
--------------------------|----------------------|--------------------------|
--6--0--3--5--1--0--3--5--|--6--0--3--5--1--0----|--0-----0-----0-----0--5--|
--6--0--3--5--1--0--3--5--|--6--0--3--5--1--0----|--0--3--0--5--0--6--0-----|


  PM    PM    PM    PM       PM                       
  E  E  E  E  E  E  E  E     E  E  E  E  E  E  E  E   
--------------------------|--------------------------|
--------------------------|--------------------------|
--------------------------|--------------------------|
--------------------------|--------------------------|
--0--8--0--7--0--4--0--5--|--5--5--5--5--5--5-----5--|
--0-----0-----0-----0-----|--5--5--5--5--5--5-----5--|


  PM                         PM    PM    PM    PM     
  E  E  E  E  E  E  E  E     E  E  E  E  E  E  E  E   
--------------------------|--------------------------|
--------------------------|--------------------------|
--------------------------|--------------------------|
--------------------------|--------------------------|
--8--8--8--8--8--8-----8--|--0-----0-----0-----0--5--|
--8--8--8--8--8--8-----8--|--0--3--0--5--0--6--0-----|


  PM    PM    PM    PM       PM                       
  E  E  E  E  E  E  E  E     E  E  E  E  E  E  E  E   
--------------------------|--------------------------|
--------------------------|--------------------------|
--------------------------|--------------------------|
--------------------------|--------------------------|
--0--8--0--7--0--4--0--5--|--x--5--5--5--5--5-----5--|
--0-----0-----0-----0-----|--x--5--5--5--5--5-----5--|


  PM             PM PM PM                                                       
  E  E  E  E  E  E  E  E     E  H        Q.          E  E  E  E  E  E  E  E   3x
--------------------------|------------------||----------------------------||
--------------------------|------------------||----------------------------||
--------------------------|------------------||*--------------------------*||
--------------------------|------------------||*--------------------------*||
--x--8--8--8--8--0--3--5--|--6---------------||---6--0--3--5--1--0--3--5---||
--x--8--8--8--8--0--3--5--|--6---------------||---6--0--3--5--1--0--3--5---||


              PM PM PM PM                                          
  E  E  E  E  E  E  E  E     W                   W                 
--------------------------|-------------------|-------------------|
--------------------------|-------------------|-------------------|
--------------------------|-------------------|-------------------|
--------------------------|--0----------------|--L----------------|
--6--0--3--5--1--0--0--0--|--0----------------|--L----------------|
--6--0--3--5--1--0--0--0--|--0----------------|--L----------------|


  W                   H.           E   E     E  E  E  E  E  E  E  E   
-------------------|----------------------|--------------------------|
-------------------|----------------------|--------------------------|
-------------------|----------------------|--------------------------|
--L----------------|--L-------------------|--1-----1-----1-----1-----|
--L----------------|--L------------6s--1--|--1-----1-----1-----1-----|
--L----------------|--L------------6s--1--|--1-----1-----1-----1-----|


  E  E  E  E  E  E  E  E     E  E  E  E  E  E  E     E  E  E  H        E   
--------------------------|-----------------------|-----------------------|
--------------------------|-----------------------|-----------------------|
--------------------------|-----------------------|-----------------------|
--1-----1-----1-----1-----|--1-----1-----1-----1--|--1-----1--------------|
--1-----1-----1-----1-----|--1-----1-----1-----1--|--1-----1--------------|
--1-----1-----1-----1-----|--1-----1-----1-----1--|--1-----1--------------|


  PM    PM    PM    PM       PM    PM    PM    PM     
  E  E  E  E  E  E  E  E     E  E  E  E  E  E  E  E   
--------------------------|--------------------------|
--------------------------|--------------------------|
--------------------------|--------------------------|
--------------------------|--------------------------|
--0-----0-----0-----0--5--|--0--8--0--7--0--4--0--5--|
--0--3--0--5--0--6--0-----|--0-----0-----0-----0-----|


  PM                         PM                       
  E  E  E  E  E  E  E  E     E  E  E  E  E  E  E  E   
--------------------------|--------------------------|
--------------------------|--------------------------|
--------------------------|--------------------------|
--------------------------|--------------------------|
--x--5--5--5--5--5-----5--|--x--8--8--8--8--8-----8--|
--x--5--5--5--5--5-----5--|--x--8--8--8--8--8-----8--|


  PM    PM    PM    PM       PM    PM    PM    PM     
  E  E  E  E  E  E  E  E     E  E  E  E  E  E  E  E   
--------------------------|--------------------------|
--------------------------|--------------------------|
--------------------------|--------------------------|
--------------------------|--------------------------|
--0-----0-----0-----0--5--|--0--8--0--7--0--4--0--5--|
--0--3--0--5--0--6--0-----|--0-----0-----0-----0-----|


  PM                                                               
  E  E  E  E  E  E  E  E     E  E  E  E  E  E  E     H.            
--------------------------|-----------------------|---------------|
--------------------------|-----------------------|---------------|
--------------------------|-----------------------|---------------|
--------------------------|-----------------------|--0------------|
--x--5--5--5--5--5-----5--|--8--8--8--8--8--8--8--|--0------------|
--x--5--5--5--5--5-----5--|--8--8--8--8--8--8--8--|--0------------|


   H.              H.               Q    Q    Q       H.            
----------------|---------------|------------------|---------------|
----------------|---------------|------------------|---------------|
----------------|---------------|------------------|---------------|
----------------|--0------------|------------------|---------------|
--/5------------|--0------------|--/5--------------|---------------|
----------------|--0------------|--------3----5----|--6------------|


   H.              H.              H.               Q    Q    Q     
----------------|---------------|----------------|-----------------|
----------------|---------------|----------------|-----------------|
----------------|---------------|----------------|-----------------|
----------------|---------------|----------------|-----------------|
--/8------------|--1------------|--5b------------|-----------------|
----------------|--1------------|----------------|--0----3----5----|


  Q    Q    Q        Q     Q     Q        Q     Q     Q         H.            
-----------------|-------------------|---------------------|----------------|
-----------------|-------------------|---------------------|----------------|
-----------------|-------------------|---------------------|----------------|
-----------------|-------------------|--10----12----12\----|--13------------|
-------5----8----|--10----11----12---|---------------------|----------------|
--6--------------|-------------------|---------------------|----------------|


         |----3----|   |----3----|                                     
   Q     E    E    E   E    E    E      H.               H.            
------------------------------------|----------------|----------------|
------------------------------------|----------------|----------------|
------------------------------------|----------------|----------------|
--15----13h--15p--13--12h--13p--12--|--10------------|--11------------|
------------------------------------|----------------|----------------|
------------------------------------|----------------|----------------|


   W                                                                  
---------------------|---------------|---------------|---------------|
---------------------|---------------|---------------|---------------|
---------------------|---------------|---------------|---------------|
--11b----------------|---------------|---------------|---------------|
---------------------|---------------|---------------|---------------|
---------------------|---------------|---------------|---------------|


                                        PM    PM    PM    PM     
                  3x                    E  E  E  E  E  E  E  E   
|-----------------||---------------||---------------------------|
|-----------------||---------------||---------------------------|
|*---------------*||---------------||*--------------------------|
|*---------------*||---------------||*--------------------------|
|-----------------||---------------||---0-----0-----0-----0--5--|
|-----------------||---------------||---0--3--0--5--0--6--0-----|


  PM    PM    PM    PM                                  
  E  E  E  E  E  E  E  E   4x  E  E  E  E  E  E  E  E   
---------------------------||--------------------------|
---------------------------||--------------------------|
--------------------------*||--------------------------|
--------------------------*||--------------------------|
--0--8--0--7--0--4--0--5---||--5--5--5--5--5--5--5--5--|
--0-----0-----0-----0------||--5--5--5--5--5--5--5--5--|


                                   PM    PM    PM     
  E  E  E  E  E  E  E  E     E  E  E  E  E  E  E  E   
--------------------------|--------------------------|
--------------------------|--------------------------|
--------------------------|--------------------------|
-----------------------0--|--L-----------------------|
--1--1--1--1--1--1--1--0--|--L-----0-----0-----0--5--|
--1--1--1--1--1--1--1--0--|--L--3--0--5--0--6--0-----|


  PM    PM    PM    PM       PM                       
  E  E  E  E  E  E  E  E     E  E  E  E  E  E  E  E   
--------------------------|--------------------------|
--------------------------|--------------------------|
--------------------------|--------------------------|
--------------------------|--------------------------|
--0--8--0--7--0--4--0--5--|--x--5--5--5--5--5-----5--|
--0-----0-----0-----0-----|--x--5--5--5--5--5-----5--|


  PM                               PM    PM    PM     
  E  E  E  E  E  E  E  E     E  E  E  E  E  E  E  E   
--------------------------|--------------------------|
--------------------------|--------------------------|
--------------------------|--------------------------|
--------------------------|--------------------------|
--x--8--8--8--8--8-----8--|--0-----0-----0-----0--5--|
--x--8--8--8--8--8-----8--|--0--3--0--5--0--6--0-----|


  PM    PM    PM    PM       PM                        PM                      
  E  E  E  E  E  E  E  E     E  E  E  E  E  Q    E     E  E  E  E  E  Q    E   
--------------------------|-----------------------|-------------------------|
--------------------------|-----------------------|-------------------------|
--------------------------|-----------------------|-------------------------|
--------------------------|-----------------------|-------------------------|
--0--8--0--7--0--4--0--5--|--x--5--5--5--5--5----5|--x--8--8--8--8--8----8--|
--0-----0-----0-----0-----|--x--5--5--5--5--5----5|--x--8--8--8--8--8----8--|


  PM                        PM                        PM                      
  E  E  E  E  E  Q    E     E  E  E  E  E  Q    E     E  E  E  E  E  Q    E   
-------------------------|------------------------|-------------------------|
-------------------------|------------------------|-------------------------|
-------------------------|------------------------|-------------------------|
-------------------------|------------------------|-------------------------|
--x--5--5--5--5--5----5--|--x--8--8--8--8--8----8-|--x--5--5--5--5--5----5--|
--x--5--5--5--5--5----5--|--x--8--8--8--8--8----8-|--x--5--5--5--5--5----5--|


                                PM PM PM          PM    PM PM PM      PM PM PM  
  E  E  E  E  E  E  E  E     E  E  E  E  E  E  E  E     E  E  E  Q    E  E  E   
-------------------------|------------------------|-------------------------|
-------------------------|------------------------|-------------------------|
-------------------------|------------------------|-------------------------|
-------------------------|------------------------|-------------------------|
--1--1--1--1--1--1--1--0-|--L--0--0--0--0--------0|--0--0--0-------0--0--0--|
--1--1--1--1--1--1--1--0-|--L--0--0--0--0--------0|--0--0--0-------0--0--0--|


  PM          PM PM PM          PM PM PM             
  E  E  E  E  E  E  E  E     E  E  E  E  E  Q.       
--------------------------|------------------------||
--------------------------|------------------------||
--------------------------|------------------------||
--------------------------|------------------------||
--0-----------0--0--0-----|-----0--0--0--0---------||
--0-----------0--0--0-----|-----0--0--0--0---------||




Duration Legend
---------------
W - whole
H - half
Q - quarter
E - 8th
S - 16th
T - 32nd
X - 64th
. - note dotted
|-n-|  - n-tuplets


Tablature Legend
----------------
L - tied note
x - dead note
g - grace note
(n) - ghost note
> - accentuded note
NH - natural harmonic
AH - artificial harmonic
TH - tapped harmonic
SH - semi harmonic
PH - pitch harmonic
h - hammer on
p - pull off
b - bend
br - bendRelease
pb - preBend
pbr - preBendRelease
brb - bendReleaseBend
\n/ - tremolo bar dip
\n - tremolo bar dive
-/n - tremolo bar Release up
/n\ - tremolo bar inverted dip
/n - tremolo bar return
-\n - tremolo bar Release down
S - shift slide
s - legato slide
/ -  slide into from below or out of upwards
\ -  slide into from above or out of downwards
~ - vibrato
W - wide vibrato
tr - trill
TP - tremolo picking
T - tapping
S - slap
P - pop
< - fade in
^ - brush up
v - brush down
Suggest correction
Give kudos to tab author, rate the tab!
1 2 3 4 5
comments
print report bad tab
guest
You may want to rate the tab now too:
select rating
Wanna post a correction for this tab? Suggest correction