Oops, an error
Loading. Please wait.

White Shaded Lie Tab

version 1
version 1

Whole song

Interactive

141 views 1 this week
no commentswrite comment
1 2 3 4 5
please rate
add to favorites
launch autoscroll
font size
0
reset
how to read this tab
guitar tuner
Autoscroll
slow
fast
+/-
esc
set tempo
stop
Help us to improve Ultimate-Guitar.com Take our survey!
×
Author
Difficulty
Tuning
intermediate
D A D G B E
Artist: Stonegard
Song: The White Shaded Lie
Album: Arrows
Tuning: Drop D (DADGBe)
Tabbed by: Eivind
Corrections: PM Dante's Inferno (Ultimate-Guitar)

I know there are mistakes. So PM me with nice criticism 
or start uploading your own tabs instead of complaining, okey?

Riff 1:
|------------|------------|
|------------|------------|
|------------|--9-8---7-6-|
|--7-6---5-3-|-7-7---5-5--|
|-5-5---3-3--|------------|
|------------|------------|

Riff 2:                   Fills: #1 (1:00)
|-------------------|    |----------------------------------|
|-------------------|    |----------------------------------|
|-------------------|    |----------------------------------|
|-------------------|    |----6---------------------5-5-5-5-|
|-5-5-5-5-5-3-3-6-5-|    |----4-5-5-3-3-6-5-5-5-5-5-3-3-3-3-|
|-------------------|    |-00-------------------------------|

 #2 (1:11)                               #3 (1:15)
|-------------------|-------------------|-------------------|
|-------------------|-------------------|-------------------|
|-------------------|-------------------|-------------------|
|----12-------------|-------------------|----21-------------|
|-------5-5-3-3-6-5-|-5-5-5-5-5-3-3-6-5-|-------5-5-3-3-6-5-|
|-00----------------|-------------------|-00----------------|

Riff 3:                             Fill:
|------------------------------|    |-------------------|
|------------------------------|    |-------------------|
|-10------9------10-----9-9/11-|    |-------------------|
|-10------9------10-----9-9/11-|    |-55555555553322222-|
|-8-------7------8------7-7/9--|    |-------------------|
|----0000---0000---0000--------|    |-------------------|


Riff 4:                       Fill:
|---------|-------------|    |----------------|
|---------|*-----------*|    |----------------|
|---------|-------------|    |----------------|
|---------|-------------|    |----------------|
|---------|*-----------*|    |-3p0----3p0-1p0-|
|-2-0-0-0-|--3-2-0-0-0--|    |-----00---------|

Riff 6:
|-----------------------|-----------------------------|
|-----------------------|-----------------------------|
|-----------------------|-----------------------------|
|-----------------------|-----------------------------|
|-------------------5p0-|-------------------5p0-3p0---|
|-22222222222222222-----|-00000000000000000-----------|

|-----------------------|-----------------------------|
|-----------------------|-----------------------------|
|-----------------------|-----------------------------|
|-----------------------|-----------------------------|
|-------------------5p0-|-------------------0h3---0h5-|
|-22222222222222222-----|-00000000000000000-----0-----|

Riff 7:
|----------------------------------------------------------------------------------|
|----------------------------------------------------------------------------------|
|-101010101010111111111111-10------10------10-----10------101010101010111111111111-|
|-101010101010111111111111-10------10------10-----10------101010101010111111111111-|
|-8-8-8-8-8-8-9-9-9-9-9-9--8-------8-------8-------8------8-8-8-8-8-8-9-9-9-9-9-9--|
|-----------------------------00-0----00-0----00-0---00-0--------------------------|

Repeat riff 3 (x1)

Riff 8:                                                     x2
|------------------------------|------------------------------|-------|
|------------------------------|------------------------------|-------|\
|-10------9------10-----9-9/11-|-10------9------10-----9------|-5-5-5-| \
|-10------9------10-----9-9/11-|-10------9------10-----9------|-5-5-5-|  | Guitar 1
|-8-------7------8------7-7/9--|-8-------7------8------7------|-3-3-3-|  |
|----0000---0000---0000--------|----0000---0000---0000---0000-|-------|  |
                                                                         |
|------------------------------|------------------------------|-------|  |
|------------------------------|------------------------------|-------|  |
|-10------9------10-----9-9/11-|----11-----11-----11-----11---|-5-5-5-|  | Guitar 2
|-10------9------10-----9-9/11-|----11-----11-----11-----11---|-5-5-5-| /
|-8-------7------8------7-7/9--|----9------9------9------9----|-3-3-3-|/
|----0000---0000---0000--------|------------------------------|-------|

Repeat riff 2
Repeat riff 4 without repeations

Now, play riff 6 again, 
but without the hammer-ons at the end: |-0p3---0p5-|
                                       |-----0-----|
Play this instead: 
|----------------------------------------------------------|
|----------------------------------------------------------|
|------------------------------------------------2---4---5-|
|------------------------------------------------2---4---5-|
|-0h333-0h555-999999997777777433333335555544444--0---2---3-|
|----------------------------------------------------------|

Repeat riff 3 (x1)
Repeat riff 8

Riff 9:
|---------------------------------------------------------------|
|---------------------------------------------------------------|
|-------------------------------------------------------------5-|
|--------------------9---8---------------------9---8---7---6--5-|
|-5-5-5-5-5-3-3-6-5-7-7-6-6-5-5-5-5-5-3-3-6-5-7-7-6-6-5-5-4-4-3-|
|---------------------------------------------------------------|

Solo fill:
|--------------------------------------------------------------------------------------------|
|--------------------------------------------------------------------------------------------|
|----12-13-11--11h12-13--13/14\13--13-12h13p12h13p12h13p12------12-13-11--11h12-13--13/14\13-|
|-10---------------------------------------------------------10------------------------------|
|--------------------------------------------------------------------------------------------|
|--------------------------------------------------------------------------------------------|

Repeat riff 1

Riff 10:        x3                  x6                                 
|-----------------|------------------|
|-----------------|------------------|
|-----------------|---------4--------|
|-----------------|---------4--------|
|-----------------|---------2--------|
|-0-000-0-0-0-000-|-0-000-0---0-0000-|

|-----------------------------------------------------------|
|-----------------------------------------------------------|
|---------4/2-4/2----------------4/2----------------4/2-4/5-|
|---------4/2-4/2----------------4/2----------------4/2-4/5-|
|---------2/0-2/0----------------2/0----------------2/0-2/3-|
|-0-000-0---------0-0000-0-000-0-----0-0000-0-000-0---------|

Riff 11: (Start play when bar 2 in riff 11 is played the 6th time)
|--------------|
|--------------|
|--------------|
|--------------|
|-3--4--5--6-8-|
|--------------|

|-------------------|--------------|
|-------------------|--------------|
|-------------------|--------------|
|-33333333333333333-|-333444555666-|
|-------------------|--------------|
|-------------------|--------------|

|------------------------------|
|------------------------------|\
|-10------9------10-----9------| \
|-10------9------10-----9------|  | Guitar 1
|-8-------7------8------7------|  |
|----0000---0000---0000---0000-|  |
                                  |
|------------------------------|  |
|------------------------------|  |
|----11-----11-----11-----11---|  | Guitar 2
|----11-----11-----11-----11---| /
|----9------9------9------9----|/
|------------------------------|

Repeat riff 2 with fills 2&3

|------------|
|------------|
|------------|
|------------|
|-0--0-0-0-0-|
|-0--0-0-0-0-|
Suggest correction
Give kudos to tab author, rate the tab!
1 2 3 4 5
comments
print report bad tab
guest
You may want to rate the tab now too:
select rating
Please do not post tabs as comments. Select "correction" instead!