Oops, an error
Loading. Please wait.

One Chord Song Tab

version 1
version 1

Whole song

33,209 views 18 this week
no commentswrite comment
1 2 3 4 5
1 last vote to show rating
add to favorites
launch autoscroll
font size
0
reset
how to read this tab
guitar tuner
×
Best way to learn
"One Chord Song"
Autoscroll
slow
fast
+/-
esc
set tempo
stop
I think this is correct if not please email me at steve_ou_bball@yahoo.com
s=slide
The Pickin'
e|---------------------------------------------------------------------------|
b|----------------------------------------3----------------------------------|
g|---------------2---------------------2------------------2-------2-0--------|
d|---------3-4-----3--------------3-4-----------------3-4---3---------4-2----|
a|0-2-3s-5------------5---0-2-3s-5------------0-2-3s-5--------5-----------2--|
E|-------------------------------------------------------------------------5-|

e|-----------------|
b|-----------------|
g|-----------------|
d|-----------------|
a|-----------------|
E|-----------------|

The chords to this song are just different forms of D.
hope u enjoy
Suggest correction
Give kudos to tab author, rate the tab!
1 2 3 4 5
comments
print report bad tab
guest
You may want to rate the tab now too:
select rating
Wanna post a correction for this tab? Suggest correction