Oops, an error
Loading. Please wait.

One Chord Song Tab

version 3
version 3

Whole song

17,058 views 24 this week
1 commentread comment
1 2 3 4 5
excellent!
x 7
add to favorites
launch autoscroll
font size
0
reset
how to read this tab
guitar tuner
Autoscroll
slow
fast
+/-
esc
set tempo
stop
Help us to improve Ultimate-Guitar.com Take our survey!
×
stoney larue - one chord song

intro play 2x

e-----------------------------------------------------------------------|
b-----------------------------------------------------------------------|
g---------------------------------7v------------------------------------|
d------------7------------------7---------------7-------7-5-------------|
a------5-8h9---9s7-5------5-8h9-----------5-8h9---9s7-5-----9---9-7-5---|
E--5h7----------------5h7-------------5h7-------------------------------|

chorus

e-------------3---------------------------------------------------------|
b----7--------2---------7-----------------------------------------------|
g----7--------3---------7-----------------------------------------------|
d----7------------------7-----------------------------------------------|
a--5------------------5-------------------------------------------------|
E-----------------------------------------------------------------------|

My baby she talks softly
by baby she found out
you catch more flies with honey
more with a whisper than a shout

e--------------------------------------|
b--------------------------------------|
g---------------------------------7v---|
d------------7------------------7------|
a------5-8h9---9s7-5------5-8h9--------|
E--5h7----------------5h7--------------|


my baby she don't scold me
no she don't like to fight
she knows a little secret
how to keep me home at night

e--------------------------------------|
b--------------------------------------|
g---------------------------------7v---|
d------------7------------------7------|
a------5-8h9---9s7-5------5-8h9--------|
E--5h7----------------5h7--------------|

my baby she talks softly
my baby she found out
you catch more flies with honey
more with a whisper than a shout

e--------------------------------------|
b--------------------------------------|
g---------------------------------7v---|
d------------7------------------7------|
a------5-8h9---9s7-5------5-8h9--------|
E--5h7----------------5h7--------------|

we like to sing together
harmonies all night long
she don't need flash or fancy
she loves the one chord song

e--------------------------------------|
b--------------------------------------|
g---------------------------------7v---|
d------------7------------------7------|
a------5-8h9---9s7-5------5-8h9--------|
E--5h7----------------5h7--------------|

one chord song
all night long
it never does me wrong
one chord song
all night long
it never does me wrong

e--------------------------------------|
b--------------------------------------|
g---------------------------------7v---|
d------------7------------------7------|
a------5-8h9---9s7-5------5-8h9--------|
E--5h7----------------5h7--------------|

we like to sing together
harmony all night long
she don't need flash or fancy
she loves a one chord song

e--------------------------------------|
b--------------------------------------|
g---------------------------------7v---|
d------------7------------------7------|
a------5-8h9---9s7-5------5-8h9--------|
E--5h7----------------5h7--------------|

my baby she don't scold me
no she don't like to fight
she knows that little secret
how to keep me home at night

e-----------------------------------------------------------------------|
b-----------------------------------------------------------------------|
g---------------------------------7v------------------------------------|
d------------7------------------7---------------7-------7-5-------------|
a------5-8h9---9s7-5------5-8h9-----------5-8h9---9s7-5-----9---9-7-5---|
E--5h7----------------5h7-------------5h7-------------------------------|

one chord song
all night long
it never does me wrong
one chord song
all night long
it never does me wrong

e-----------------------------------------------------------------------|
b-----------------------------------------------------------------------|
g---------------------------------7v------------------------------------|
d------------7------------------7---------------7-------7-5-------------|
a------5-8h9---9s7-5------5-8h9-----------5-8h9---9s7-5-----9---9-7-5---|
E--5h7----------------5h7-------------5h7-------------------------------|
Suggest correction
comments
print report bad tab
1 comment total.
0 reply
stalecoffee 23 wrote on October 10 2015, 10:01 am

Drop D tuning.

guest
You may want to rate the tab now too:
select rating
Please do not post tabs as comments. Select "correction" instead!