Oops, an error
Loading. Please wait.

Beautiful tab

775 views 1 this week
no commentswrite comment
1 2 3 4 5
1 last vote to show rating
add to favorites
×
Save as Personal and add changes to this tab that will be seen only by you. Learn more ›
×
You can save this tab as Personal to edit and correct it or add notes. All changes will be seen only by you. Learn more »
launch autoscroll
font size
0
reset
how to read this tab
guitar tuner
edit
Autoscroll
slow
fast
+/-
esc
set tempo
stop
Author
Artist: Storm Large & Michael Cavaseno
Title: Beautiful

Tabbed by: Federico Lebron


This one took a bit longer than expected, partly because the intro riff is 
freaking hard to play @_@. Again many thanks to Michael for correcting it :)
I like to play it with my index finger on the e string, ring finger on B.
Michael plays it with his pinky on the B string, switching between index and 
ring finger for the bass notes.
This riff plays throughout most of the song, not only the intro, so the chords 
are if you want to switch between chords and fingering in certain parts, like 
he does. Also, on the verse, Michael plays a third fret G on the high string 
for the C and A7sus4 chords.

e|--1---1---1---1---1---1---0------0--1---1---1---1---1---1---0-------0------|
B|----3---3---3---3---3---3---3--2------3---3---3---3---3---3---3---2--------|
G|------2-------2-------0-----------------2-------2-------0------------------|
D|--0----------------------------2----0-----------------------------2--------|
A|----------3-------2-------0-----------------3-------2-------0--------------|
E|---------------------------------------------------------------------------|


e|--1-------0--1--3----1------1--0--1--3--1---1---1---1---1---1---0------0---|
B|-----3-3----------------3-3---------------3---3---3---3---3---3---3--2-----|
G|--------------------------------------------2-------2-------0--------------|
D|--0-------------------------------------0----------------------------2-----|
A|----------------3----1---------------0----------3-------2------------------|
E|---------------------------------------------------------------------------|


        Dm       C       G         A7sus4
She was over the top and out of control
Dm       C      G              A7sus4
She ran away at thirteen years old
    Dm          C           G      A7sus4
But she had her feet on the ground
    Dm     C           G     A7sus4
And nobody pushed her around

    D                  G          Bb   A
Her mommy said "you'd better be a good girl"
    D                  G           Bb  A
Her teacher said "hey turn that music down"
    D                  G                Bb A
And everyone said "the girl's a trouble maker"
    D                           G          Bb  A
And all she would ever say was "ain't life beautiful"

(Play riff)
Oooh....

        Dm        C             G          A7sus4
She was under the influence of "Out Of The Blue"
    Dm                  C    G              A7sus4
And all those crimson colors stand up and salute you
Dm         C            G     A7sus4
She is the one with the smile
Dm                C        G            A7sus4
The angel wearing devilish looks in her eyes


    D                  G          Bb   A
Her mommy said "you'd better be a good girl"
    D                 G               Bb  A
Her teacher said "hey turn that music down"
    D                  G                Bb A
And everyone said "the girl's a trouble maker"
    D                           G          Bb  A
And all she would ever say was "ain't life beautiful"

A        C      A
She will crawl around and be a shame
    C                 C A
and she, had better get used to it



(Play this riff throughout this part)

e|--1---1---1---1---1---1---0------0--1---1---1---1---1---1---0-------0------|
B|----3---3---3---3---3---3---3--2------3---3---3---3---3---3---3---2--------|
G|------2-------2-------0-----------------2-------2-------0------------------|
D|--0----------------------------2----0-----------------------------2--------|
A|----------3-------2-------0-----------------3-------2-------0--------------|
E|---------------------------------------------------------------------------|

She was over the top and out of control
Big girls were not built to walk the straight and narrow
She is the one wearing the crown
And everybody wants her around
And all she would ever say was "ain't life beautiful"
And all that she would ever say was "ain't life beautiful" (x3)

D              G              Bb  A
Mommy said she always was the best
D               G                Bb  A
Teacher said "I turned that kid around"
D                  G               Bb  A
And everyone said "yeah, I used to fuck her"
D                       G        Bb     D
And all that she'd ever say is "beautiful"
      D   G   Bb A
Beautiful... x4
        D           G         Bb                   D
She said "Take life, take life, ain't life, beautiful" x2

            
            
Suggest correction
Creating personal tab
Creating personal tab
You can edit any tab online and save it as your Personal.

You can edit, replace or remove any tab part or add personal notes – all changes will be seen only by you.

Personal tabs can be accessed anytime from any device, even offline.
Learn more »
Give kudos to tab author, rate the tab!
1 2 3 4 5
comments
print report bad tab
guest
You may want to rate the tab now too:
select rating
Wanna post a correction for this tab? Suggest correction