Oops, an error
Loading. Please wait.

Jaded Ghost tab

238 views 6 this week
2 commentsread comments
1 2 3 4 5
2 more votes to show rating
add to favorites
×
Save as Personal and add changes to this tab that will be seen only by you. Learn more ›
×
You can save this tab as Personal to edit and correct it or add notes. All changes will be seen only by you. Learn more »
launch autoscroll
font size
0
reset
how to read this tab
guitar tuner
edit
Autoscroll
slow
fast
+/-
esc
set tempo
stop
JADED GHOST - STORM THE SKY
-----------------------------------------------------------------
Tabbed by: deadly12
Email: -
Learnt from: https://www.youtube.com/watch?v=KoyDCOa_onM

Tuning: Drop D

[Intro] - Guitar:

e|--------------------------------------------------------------------------------|
B|--------------------------------------------------------------------------------|
G|--------------------------------------------------------------------------------|
D|-4-4-4-4-4-4-4-4--0-0-0-0-0-0-0-0--9-9-9-9-9-9-9-9--12-12-12-12-12-12-12-12-----|
A|-4-4-4-4-4-4-4-4--0-0-0-0-0-0-0-0--9-9-9-9-9-9-9-9--12-12-12-12-12-12-12-12-----|
D|-4-4-4-4-4-4-4-4--0-0-0-0-0-0-0-0--9-9-9-9-9-9-9-9--12-12-12-12-12-12-12-12-----|

First half of verse is just feedback
Second half there is no guitar

[Pre Chorus] -  Guitar:

e|------------------------------------------|
B|------------------------------------------|
G|------------------------------------------|
D|-9-9-9-9-9-9-9-9--12-12-12-12-12-12-12-12-|
A|-9-9-9-9-9-9-9-9--12-12-12-12-12-12-12-12-|
D|-9-9-9-9-9-9-9-9--12-12-12-12-12-12-12-12-| x2

[Chorus] -  Guitar:

e|------------------------|
B|------------------------|
G|------------------------|
D|-2\4--x-x-x-x--2\4-7-4--|
A|-2\4--x-x-x-x--2\4-7-4--|
D|-2\4--x-x-x-x--2\4-7-4--|x2

e|------------------------------------------|
B|------------------------------------------|
G|------------------------------------------|
D|-9-9-9-9-9-9-9-9--12-12-12-12-12-12-12-12-|
A|-9-9-9-9-9-9-9-9--12-12-12-12-12-12-12-12-|
D|-9-9-9-9-9-9-9-9--12-12-12-12-12-12-12-12-| 

repeat both twice

Post Chorus - no guitar just has those weird System of a Down sounds

Verse again has no guitar

[Pre Chorus] -  Guitar:

e|--------|
B|--------|
G|--------|
D|-9-9-12-|
A|-9-9-12-|
D|-9-9-12-|

[Chorus] -Guitar:

e|------------------------|
B|------------------------|
G|------------------------|
D|-2\4--x-x-x-x--2\4-7-4--|
A|-2\4--x-x-x-x--2\4-7-4--|
D|-2\4--x-x-x-x--2\4-7-4--|x2

e|------------------------------------------|
B|------------------------------------------|
G|------------------------------------------|
D|-9-9-9-9-9-9-9-9--12-12-12-12-12-12-12-12-|
A|-9-9-9-9-9-9-9-9--12-12-12-12-12-12-12-12-|
D|-9-9-9-9-9-9-9-9--12-12-12-12-12-12-12-12-| 


[Bridge]
  (PALM MUTED)
e|------------------------------------|
B|------------------------------------|
G|------------------------------------|
D|-4-4-4--10-10-10--9-9-9-9-9-9-9-9---|
A|-4-4-4--10-10-10--9-9-9-9-9-9-9-9---|
D|-4-4-4--10-10-10--9-9-9-9-9-9-9-9---| x4

Breakdown:

e|----------------------|
B|----------------------|
G|----------------------|
D|-4--10--9--5-5-5-5-5-5|
A|-4--10--9--5-5-5-5-5-5|
D|-4- 10--9--5-5-5-5-5-5| x3

Pre Chorus:

e|-------------|
B|-------------|
G|-------------|
D|-4--0--9--12-|
A|-4--0--9--12-|
E|-4--0--9--12-|

Chorus -  Guitar:

e|------------------------|
B|------------------------|
G|------------------------|
D|-2\4--x-x-x-x--2\4-7-4--|
A|-2\4--x-x-x-x--2\4-7-4--|
D|-2\4--x-x-x-x--2\4-7-4--|x2

e|------------------------------------------|
B|------------------------------------------|
G|------------------------------------------|
D|-9-9-9-9-9-9-9-9--12-12-12-12-12-12-12-12-|
A|-9-9-9-9-9-9-9-9--12-12-12-12-12-12-12-12-|
D|-9-9-9-9-9-9-9-9--12-12-12-12-12-12-12-12-| 

[Chorus] continued:

e|------------------------------------------|
B|------------------------------------------|
G|------------------------------------------|
D|-9-9-9-9-9-9-9-9--12-12-12-12-12-12-12-12-|
A|-9-9-9-9-9-9-9-9--12-12-12-12-12-12-12-12-|
D|-9-9-9-9-9-9-9-9--12-12-12-12-12-12-12-12-| x2

[Outro]

e|----------------------|
B|----------------------|
G|----------------------|
D|-4--10--9--5-5-5-5-5-5|
A|-4--10--9--5-5-5-5-5-5|
D|-4- 10--9--5-5-5-5-5-5| x4

*****************************************

| /  slide up
| \  slide down
| h  hammer-on
| p  pull-off
| ~  vibrato
| +  harmonic
| x  Mute note

*****************************************
Suggest correction
Creating personal tab
Creating personal tab
You can edit any tab online and save it as your Personal.

You can edit, replace or remove any tab part or add personal notes – all changes will be seen only by you.

Personal tabs can be accessed anytime from any device, even offline.
Learn more »
Give kudos to tab author, rate the tab!
1 2 3 4 5
comments
print report bad tab
2 comments total.
0 reply
neckbr8ker 10 Feb 27, 2017 03:43 AM

can you post one of in vein? :)

guest
You may want to rate the tab now too:
select rating
Wanna post a correction for this tab? Suggest correction