Oops, an error
Loading. Please wait.

Anthem Of Our Dying Day Bass Tab

version 1
version 1

Whole song

7,336 views 3 this week
2 commentsread comments
1 2 3 4 5
x 3
add to favorites
launch autoscroll
font size
0
reset
guitar tuner
Autoscroll
slow
fast
+/-
esc
set tempo
stop
Help us to improve Ultimate-Guitar.com Take our survey!
×
Author
tuning: g,d,a,d

Intro
G------------------------------------------¦
D------------------------------------------¦
A------------------------------------------¦
D---4-xxx-4-xxx-4-xxx-4-xxxx---------------¦

Chorus
G----------------------------------------------------------------------------------------|
D----------------------------------------------------------------------------------------|
A----------------------------------------------------------------------------------------|
D-7-7777-7-7777-7-7777-7-7777-2-2222-2-2222-2-2222-2-2222-4-4444-4-4444-4-4444-4-4444----|

Chorus continued:
G--------------------------------------------------¦  *Then Play: G----------------------|
D--------------------------------------------------¦              D----------------------|
A-4-4444-4-4444-5-5555-5-5555----------------------¦              A----------------------|
D--------------------------------------------------¦              D--4-4-4-xxxxxx--------|

 1st Verse
G-------------------------------------------------------------------------------------------------|
D-------------------------------------------------------------------------------------------------|
A----------------5-5555-5-5555-5-5555-5-5555-------------5-5555-5-5555-5-5555-5-5555--------------|
D---(PAUSE)----------------------------------44-44-44-44-----------------------------44-44-44-44--|

1st Verse continued:
G----------------------------------------------------------------------------------------|
D----------------------------------------------------------------------------------------|
A---5-5555-5-5555-5-5555-5-5555-------------5-5555-5-5555-5-5555-xxxxxx-xxxxxx-----------|
D-------------------------------44-44-44-44----------------------------------------------|

Chorus
G----------------------------------------------------------------------------------------|
D-------------------------------------------------------------------- -------------------|
A----------------------------------------------------------------------------------------|
D-7-7777-7-7777-7-7777-7-7777-2-2222-2-2222-2-2222-2-2222-4-4444-4-4444-4-4444-4-4444----|

Chorus continued:
G--------------------------------------------------¦
D--------------------------------------------------¦
A-4-4444-4-4444-5-5555-5-5555----------------------¦
D--------------------------------------------------¦

After Chorus Play:
G----------------------------------------------------------------------------------------|
D----------------------------------------------------------------------------------------|
A------------------55-5-5------------------55-5-5-------------------------55-5-5---------|
D-44-4-44---44-4-4--------44-4-44---44-4-4--------xx-x-x-44-4-44---4-44-4--------4-44-44-|

Continued:
G-------------------------------------------------¦
D-------------------------------------------------¦
A-------------x-5-5-5-x-5-5-5-x-5-5-5-x-5-5-5-----¦
D-xxxx-44-4-4-------------------------------------¦

2nd Verse
G----------------------------------------------------------------------------------¦
D----------------------------------------------------------------------------------¦
A-----------------------------------------------5-x-xx-5-x-xx-5-x-xx-5-x-xx--------¦
D-(PAUSE)-0-0000-0-0000-0-0000-0-0000--4-4-4-4-------------------------------------¦

**Guitar Part**

Semi Pre-Chorus
G---------------------------------------------¦
D---------------------------------------------¦
A------------------------55-5-5-55-5-5--------¦
D---4-xxxx-4-xxxx-4-xxxx----------------------¦

Chorus
G---------------------------------------------------------------------------------------|
D---------------------------------------------------------------------------------------|
A---------------------------------------------------------------------------------------|
D-7-7777-7-7777-7-7777-7-7777-2-2222-2-2222-2-2222-2-2222-4-4444-4-4444-4-4444-4-4444---|

Chorus continued:
G--------------------------------------------------¦
D--------------------------------------------------¦
A-4-4444-4-4444-5-5555-5-5555----------------------¦
D--------------------------------------------------¦

Outro
G-------------------------------------------------------¦
D-------------------------------------------------------¦
A---------------------x-5-5-5-x-5-5-5-x-5-5-5-xxxx------¦
D---4-4-4--xxxx-4-4-4-----------------------------------¦
Suggest correction
Give kudos to tab author, rate the tab!
1 2 3 4 5
comments
print report bad tab
2 comments total.
+1 reply
Dave Hoppus 125 Dec 09, 2006 04:19 AM

Ns work

0 reply
LordScatsberry 10 Oct 01, 2013 09:24 AM

are the x's ghost notes?

guest
You may want to rate the tab now too:
select rating
Wanna post a correction for this tab? Suggest correction