Oops, an error
Loading. Please wait.

Anthem Of Our Dying Day Tab

version 4
version 4

Whole song

Interactive

3,702 views 1 this week
3 commentsread comments
1 2 3 4 5
accurate
x 2
add to favorites
launch autoscroll
font size
0
reset
how to read this tab
guitar tuner
Tab Pro tools
  • play this tab
  • loop segment
  • change instrument
  • show fretboard
  • metronome
×
Best way to learn
"Anthem Of Our Dying Day"
Autoscroll
slow
fast
+/-
esc
set tempo
stop
Contributor
Difficulty
Tuning
intermediate
D A D G B E
======================================
Song:Anthem Of Our Dying Day        /
Band:Story Of The Year             /
Album:Page Avenu                   \
Tabbed By:Pizza-Boi (GoOcH)*69      \
======================================
Tuning:Drop D eBGDAD

Legend:
.=Palm Mute
x=Mute Note
/=PickSlide
b=Bend
r=Release
h=Hammer
p=Pull Off

[Guitar 1]

Intro (0:00)
(clean) verse starts after you play this twice
e-------------------------------------|
B-------------------------------------|
G-------------------------------------|
D--7-7-7-7-7-7-7-7--11111111--9-9-9-9-|x6
A--4-4-4-4-4-4-4-4--9-9-9-9---7-7-7-7-|
D--x-x-x-x-x-x-x-x--x-x-x-x---x-x-x-x-|

End On (0:39)
e-----|
B-----|
G-----|
D--7--|
A--4--|
D--x--|

Pre-Chorus (0:40)
e----------------------------|
B----------------------------|
G----------------------------|
D--0--xxx--0--xxx--0-xxx--0--|
A--0--xxx--0--xxx--0-xxx--0--|
D--0--xxx--0--xxx--0-xxx--0--|

Chorus (0:45)
e---------------------------------------------|
B---------------------------------------------|
G---------------------------------------------|
D--77777777--22222222--44444444--66666-77777--|
A--77777777--22222222--44444444--44444-55555--|
D--77777777--22222222--44444444---------------|

Pre-Verse (0:59)
e-----------------------------------------------------|
B-----------------------------------------------------|
G-----------------------------------------------------|
D--4------7-----4------7----4------7------------------|
A--4--7-----7---4--7-----7--4--7-----7--0-0-0-0-0-0x--|
D--4----7-------4----7------4----7------0-0-0-0-0-0x--|
                                        . . . . . .
Verse 2 (1:03)
e--------------------|
B--------------------|
G--------------------| slowly
D--------------------| fade
A--7-7-7-7-7-7-7-7-7-| out
D--------------------|

(1:07)
e--------------|
B-------7------|
G-------9b11r9-|
D--------------|
A--------------|
D--------------|

(1:10)
e---------------------------------------------------|
B---------------------------------------------------|
G---------------------------------------------------|
D----------7-----------7-----------7-----------7----|
A------7-----7-----7-----7-----7-----7-----7-----7--|
D--9-9---7-----9-9---7-----9-9---7-----9-9---7------|

(1:14)
e-------------------|
B-------------------|
G-------------------|
D--0-0-0-0-0-0-0-0--|
A--0-0-0-0-0-0-0-0--|
D--0-0-0-0-0-0-0-0--|

(1:18)
e---------------------------------------------------|
B---------------------------------------------------|
G---------------------------------------------------|
D----------7-----------7-----------7-----------7----|
A------7-----7-----7-----7-----7-----7-----7-----7--|
D--9-9---7-----9-9---7-----9-9---7-----9-9---7------|

(1:24)
e----------------------|
B-----12---12---12-----|
G--------9----9----9---|
D--0-------------------|
A--0-------------------|
D--0-------------------|

(1:26)
e---------------------------------------------------|
B---------------------------------------------------|
G---------------------------------------------------|
D----------7-----------7-----------7-----------7----|
A------7-----7-----7-----7-----7-----7-----7-----7--|
D--9-9---7-----9-9---7-----9-9---7-----9-9---7------|

(1:29)
e-------------------|
B-------------------|
G-------------------|
D--0-0-0-0-0-0-0-0--|
A--0-0-0-0-0-0-0-0--|
D--0-0-0-0-0-0-0-0--|

Chorus (1:32)
e---------------------------------------------|
B---------------------------------------------|
G---------------------------------------------|
D--77777777--22222222--44444444--66666-77777--|
A--77777777--22222222--44444444--44444-55555--|
D--77777777--22222222--44444444---------------|

Bridge (1:47)
e---------------------------------|
B---------------------------------|
G-------------------------------7-|
D-4-4-4-4-0---------4-4-4-4-0-0-7-|
A-4-4-4-4-0---------4-4-4-4-0-0-5-|
D-4-4-4-4-0---------4-4-4-4-0-0---|
          .                 . .
(1:53)
e------------------------------------------|
B------------------------------------------|
G-------------------------------7--7-------|
D-4-4-4-4-0---------4-4-4-4-0-0-7--7-0-0-0-|
A-4-4-4-4-0---------4-4-4-4-0-0-5--5-0-0-0-|
D-4-4-4-4-0---------4-4-4-4-0-0------0-0-0-|
          .                 . .      . . .
(1:57)
e---------------------------|
B---------------------------|
G-------------------------7-|
D-4-4-4-4-0---4-4-4-4-0-0-7-|
A-4-4-4-4-0---4-4-4-4-0-0-5-|
D-4-4-4-4-0---4-4-4-4-0-0---|
          .           . .
(2:01)
e---------------------------------------------------------|
B---------------------------------------------------------|
G-------------------------7--7-----7--7-----7--7-----7--7-|
D-4-4-4-4-0---4-4-4-4-0-0-x--x-0-0-x--x-0-0-x--x-0-0-x--x-|
A-4-4-4-4-0---4-4-4-4-0-0-5--5-0-0-5--5-0-0-5--5-0-0-5--5-|
D-4-4-4-4-0---4-4-4-4-0-0------0-0------0-0------0-0------|
          .           . .

*FeedBack*

Interlude (2:13) Pre-Chorus (2:17)
e--------------|e----------------------------|
B--------------|B----------------------------|
G--7--7--7--7--|G----------------------------|
D--x--x--x--x--|D--0--xxx--0--xxx--0-xxx--0--|
A--5--5--5--5--|A--0--xxx--0--xxx--0-xxx--0--|
D--------------|D--0--xxx--0--xxx--0-xxx--0--|

Chorus (2:20)
   |-------Acoustic-------||-----distorted---------|
e--------------------------------------------------|
B--------------------------------------------------|
G--999999--444444--666666-----------------77777----|
D--777777--222222--444444---/////////////-77777----|
A--777777--222222--444444--/pick slide//--55555----|
D--777777--222222--444444-/////////////------------|

Chorus (2:36)
e---------------------------------------------|
B---------------------------------------------|
G---------------------------------------------|
D--77777777--22222222--44444444--66666-77777--|x2
A--77777777--22222222--44444444--44444-55555--|
D--77777777--22222222--44444444---------------|

Post Chorus (3:05)
e-----------------------------------------------------|
B-----------------------------------------------------|
G-----------------------------------------------------|
D--4------7-----4------7----4------7------------------|
A--4--7-----7---4--7-----7--4--7-----7--0-0-0-0-0-0x--|
D--4----7-------4----7------4----7------0-0-0-0-0-0x--|
                                        . . . . . .

e---------------------------------------|
B---------------------------------------|
G---------------------------------------|
D--4------7-----4------7----4------7----|
A--4--7-----7---4--7-----7--4--7-----7--|
D--4----7-------4----7------4----7------|

e---------------------------------------------|
B---------------------------------------------|
G---------------------------------------------|
D--0-0-0--0-0-0-0--0-0-0-0--0-0-0-0-0-0-0-0x--|
A--0-0-0--0-0-0-0--0-0-0-0--0-0-0-0-0-0-0-0x--|
D--0-0-0--0-0-0-0--0-0-0-0--0-0-0-0-0-0-0-0x--|
                            . . . . . . . .
Outro (3:15)-(3:30)
e--------------------------------------------444444--/555555----0-|
B--------------------------------------------444444--/555555----0-|
G--999999999999--444444444444--666666666666--666666--/777777---\2-|
D--777777777777--222222222222--444444444444--666666--/777777---\2-|
A--777777777777--222222222222--444444444444--444444--/555555----0-|
D--777777777777--222222222222--444444444444-----------------------|

(3:39)
 End

============================================================================

[Guitar 2]

Intro (0:00)
e--------------------------------|
b--------------------------------|
g--------------------------------|
d--------------------------------|x6
a--12b--16b--14b-12b--16b--14b---|
d--0----0----0---0----0----0-----|

Pre-Chorus (0:40)
e|-----------------------------|
B|-----------------------------|
G|----9-9-9---9-9-9---9-9-9----|
D|--x-x-x-x-x-x-x-x-x-x-x-x-x--|
A|--x-7-7-7-x-7-7-7-x-7-7-7-x--|
D|--x-------x-------x-------x--|

Chorus (0:45)
e---------------------------------------------|
B---------------------------------------------|
G---------------------------------------------|
D--77777777--22222222--44444444--66666-77777--|
A--77777777--22222222--44444444--44444-55555--|
D--77777777--22222222--44444444---------------|

Pre-Verse (0:59)
e-------------------------------|
B-------------------------------|
G-------------------------------|
D-4x---4x---4x------------------|
A-4x---4x---4x---0-0-0-0-0-0x---|
D-4x---4x---4x---0-0-0-0-0-0x---|
                  ...........

Verse (1:07)
e---------------------------|
B---------------------------|
G---------------------------|
D--0-0-0-0-0-0-0-0-0-0-0-0--|
A--0-0-0-0-0-0-0-0-0-0-0-0--|
D--0-0-0-0-0-0-0-0-0-0-0-0--|

verse continued (1:10)
e---------------------------------------|
B---------------------------------------|
G--11-11-13-11-14-11-13h14p13-11-11-14--|
D---------------------------------------|x2
A---------------------------------------|
D---------------------------------------|
   .  .  .  .  .  .  .  .  .  .  .  .

(1:14)
e---------------------------------------|
B---------------------------------------|
G--11-11-13-11-14-11-13h14p13-11-11-14--|
D---------------------------------------|x2
A---------------------------------------|
D---------------------------------------|
    .  .  .  .  .  .  .  .  .  .  .  .

(1:18)
e---------------------------------------|
B---------------------------------------|
G--11-11-13-11-14-11-13h14p13-11-11-14--|
D---------------------------------------|x2
A---------------------------------------|
D---------------------------------------|
    .  .  .  .  .  .  .  .  .  .  .  .

(1:22)
e---------------------------------------|
B---------------------------------------|
G--11-11-13-11-14-11-13h14p13-11-11-14--|
D---------------------------------------|x2
A---------------------------------------|
D---------------------------------------|
    .  .  .  .  .  .  .  .  .  .  .  .

(1:26)
e---------------------------------------|
B---------------------------------------|
G--11-11-13-11-14-11-13h14p13-11-11-14--|
D---------------------------------------|
A---------------------------------------|
D---------------------------------------|
    .  .  .  .  .  .  .  .  .  .  .  .

(1:30)
e--------------------------------------------------------|
B--------------------------------------------------------|
G--------------------------------------------------------|
D--0-0-0-0-0-0-0-0-x-x-0-0-0-x-x-0-0-0-x-x-0-0-0-x-x-----|
A--0-0-0-0-0-0-0-0-x-x-0-0-0-x-x-0-0-0-x-x-0-0-0-x-x-----|
D--0-0-0-0-0-0-0-0-x-x-0-0-0-x-x-0-0-0-x-x-0-0-0-x-x-----|

Chorus (1:40)
e------------------|--------------------------------|
B------------------|--------------------------------|
G--16-14-13h14-13--|--14-13h14-13h14-13h14-13h14-13-|x5
D------------------|--------------------------------|
A------------------|--------------------------------|
D------------------|--------------------------------|

Bridge (1:47) Guitar 1

*FeedBack*

Interlude (2:13) Pre-Chorus (2:17)
e--------------|e-----------------------------|
B--------------|B-----------------------------|
G--7--7--7--7--|G-----999-----999-----999-----|
D--x--x--x--x--|D--x--xxx--x--xxx--x--xxx--x--|
A--5--5--5--5--|A--x--777--x--777--x--777--x--|
D--------------|D--x-------x-------x-------x--|

Acoustic Chorus: (Only guitar 1)

Pick Slide (2:31)

Chorus (2:43)
e------------------|--------------------------------|
B------------------|--------------------------------|
G--16-14-13h14-13--|--14-13h14-13h14-13h14-13h14-13-|x10 or until
D------------------|--------------------------------|    outro
A------------------|--------------------------------|
D------------------|--------------------------------|

Outro Part (3:05)-(3:15)
e--------------------------------------------------------------------------|
B--------------------------------------------------------------------------|
G--------------------------------------------------------------------------|
D-4x---4x---4x---0-0-0-0-0-0--4x---4x---4x---x-0-0-0-x-0-0-0-x-0-0-0-0-0-0-|
A-4x---4x---4x---0-0-0-0-0-0--4x---4x---4x---x-0-0-0-x-0-0-0-x-0-0-0-0-0-0-|
D-4x---4x---4x---0-0-0-0-0-0--4x---4x---4x---x-0-0-0-x-0-0-0-x-0-0-0-0-0-0-|
                 ...........

e------------------|
B------------------|
G------------------|
D--0-0-0-0-0-0-0x--|
A--0-0-0-0-0-0-0x--|
D--0-0-0-0-0-0-0x--|
   . . . . . . .

2nd Outro on Acoustic is played by Guitar 1

(3:39)
 End
============================================================================

One Of Story Of The Years Best Songs So Far.

I looked for this tab on the net and couldnt find any tab that was correct
alot of them were close but not 100% so i watched the music video over and over
and listened to the song over and over (now im sik ov the fukin song) and tabbed it my self.
i swear this is 99.9% correct and anyone who begs to differ,BRING IT ON!!!

any corrections,CONSTRUCTIVE criticism or comments.
e-mail me at GoOcH_4_eva@hotmail.com

peace out!
GoOcH*69
comments
We did not receive enough feedback on this tab! Please rate:
print report bad tab
1 2 3 4 5
3 comments total.
0 reply
jvfender wrote on June 15 2007, 10:52 am

off

0 reply
loserific94 wrote on May 8 2010, 12:32 pm

intros wrong.
im pretty sure the last time it goes:
e-------------------------------------|
B-------------------------------------|
G-------------------------------------|
D--7-7-7-7-7-7-7-7--11111111--9-------|
A--4-4-4-4-4-4-4-4--9-9-9-9---7-------|
D-------------------------------------|
and you hold the last note, i might be wrong but thats what it sounds like.

0 reply
loserific94 wrote on May 8 2010, 12:32 pm

intros wrong.
im pretty sure the last time it goes:
e-------------------------------------|
B-------------------------------------|
G-------------------------------------|
D--7-7-7-7-7-7-7-7--11111111--9-------|
A--4-4-4-4-4-4-4-4--9-9-9-9---7-------|
D-------------------------------------|
and you hold the last note, i might be wrong but thats what it sounds like.

I want to post or [tab]
guest
You may want to rate the tab now too:
select rating
Please do not post tabs as comments. Select "correction" instead!