Oops, an error
Loading. Please wait.

Antidote Tab

version 1
version 1

Whole song

Interactive

35,378 views 6 this week
8 commentsread comments
1 2 3 4 5
accurate
x 9
add to favorites
launch autoscroll
font size
0
reset
how to read this tab
guitar tuner
Tab Pro tools
  • play this tab
  • loop segment
  • change instrument
  • show fretboard
  • metronome
×
Best way to learn
"Antidote"
Autoscroll
slow
fast
+/-
esc
set tempo
stop
Contributor
Difficulty
novice
So this is my tab for this awsome song. I figured this out entirely by ear so if
something sounds off, sorry. Enjoy.

Intro: Gtr 1 clean with delay or echo(not sure which)
e--------------------------------|   -  -  -  - 
B-6-6-4--6-6-6-6-4--6-6-6-9--8-9-|             -
G--------------------------------|              -
D--------------------------------|               -
A--------------------------------|                -
D--------------------------------|                 -

e----------------------------------------|
B-6-6-4--6-6-6-6-4--6-6-6--11--9-8-9-8-6-|
G----------------------------------------|
D----------------------------------------|                x2
A----------------------------------------|
D----------------------------------------|

e--------------------------------|                     -
B-6-6-4--6-6-6-6-4--6-6-6-9--8-9-|                    -
G--------------------------------|                   -
D--------------------------------|                  -
A--------------------------------|                 -   
D--------------------------------|     -   -  -  - 

e--------------------------------------------------|
B-6-6-4--6-6-6-6-4--6-6-6--9-9-8-8-9-9-8-8-9-9-8-8-|
G--------------------------------------------------|
D--------------------------------------------------|
A--------------------------------------------------|
D--------------------------------------------------|


Verse: Gtr 1 & 2 Distortion
e--------|
B--------|
G--------|
D-3-3x-1-| x8
A-3-3x-1-|
D-3-3x-1-|

Gtr 1
e-------|
B-1/18~-|
G-------|
D-------|
A-------|
D-------|

e-----------|
B-----------|
G-----------|
D-3---0h1-3-|  x3
A-3---0h1-3-|
D-3---0h1-3-|

e---------------------------------|
B---------------------------------|
G---------------------------------|
D-3---0h1-3----------1----------3-|
A-3---0h1-3----------1----------3-|
D-3---0h1-3--6-5-3-0-1--6-5-3-1-3-|

e---------------------|
B-4-4-4--6-6-6--------|
G---------------------|
D---------------0h1-3-|   x3
A---------------0h1-3-|
D---------------0h1-3-|
  . .    . .

e-----------------------------|
B-4-4-4--6-6-6----------------|
G-----------------------------|
D---------------0h1-3-3-6-----|
A---------------0h1-3-3-6-----|
D---------------0h1-3-3-6--12b|
  . .    . .


Pre Chorus: Gtr 1 & 2
e--------------------|
B--------------------|
G-6------------------|
D-6-x16---6-----1----|
A-4-------6-x8--1-x8-|
D---------6-----1----|


Chorus: Gtr 2
e-----------------|
B-----------------|
G-----------------| 
D-3-----0----1----|  x2
A-3-x16-0-x8-1-x8-|
D-3-----0----1----|


Verse

Gtr 1
e-------|
B-1/18~-|
G-------|
D-------|
A-------|
D-------|

e----------------------------|
B--------4-4-4--6-6-6--------|
G----------------------------|
D-0h1-3----------------0h1-3-|   x3
A-0h1-3----------------0h1-3-|
D-0h1-3----------------0h1-3-|
  . .    . .

e-----------------------------|
B-4-4-4--6-6-6----------------|
G-----------------------------|
D---------------0h1-3-3-6-----|
A---------------0h1-3-3-6-----|
D---------------0h1-3-3-6--12b|
  . .    . .


Pre Chorus: Gtr 1 & 2
e--------------------|
B--------------------|
G-6------------------|
D-6-x16---6-----1----|
A-4-------6-x8--1-x8-|
D---------6-----1----|


Chorus: Gtr 2
e-----------------|
B-----------------|
G-----------------| 
D-3-----0----1----|  x4
A-3-x16-0-x8-1-x8-|
D-3-----0----1----|

e---------------|
B---------------|
G---------------|
D-3-3---0h1-3-3-|  x8
A-3-3---0h1-3-3-|
D-3-3---0h1-3-3-|


Bridge Gtr 1

e-----------------------------------|
B-----------------------------------|
G-----------------------------------|
D-----------6--5--------------------|
A----6-8-8-------8-6-8p6------6h8p6-|
D-6-8---------------------6-8-------|

Gtr 1 & 2: clean

e--------------|
B-9-----8------|
G-8-----8------|  
D---x16---x16--|   x2
A-6-----6------|
D--------------|


Didnt figure out solo yet sorry.

e------------------------------------------------------------------|
B------------------------------------------------------------------|
G------------------------------------------------------------------|
D-------6-5------------------6-5-----------------6-5-----------6\1-|
A-----------------------------------------4-4-4--------------------|
D-3-3-3-----1h3p1-1---3-3-3------1h3p1-1--------------6p5p3-1------|
  . . .               . . .               . . .

e------------------------------------------------------------|
B------------------------------------------------------------|
G-10-8--10--12--13--12--13--12--8--13--12--8--13--12--10--10-|
D------------------------------------------------------------|
A-8--6---8--10--11--10--11--10--6--11--10--6--11--10--8---8--|
D------------------------------------------------------------|
(all consecutive strumming, figure out the pattern yourself.)


Last Chorus

e---------------------------------|
B---------------------------------|
G----------6----------------------|
D-0h1-3-3--6----1-1-1-1-1-1-1-1-1-|
A-0h1-3-3--4----1-1-1-1-1-1-1-1-1-|
D-0h1-3-3-------1-1-1-1-1-1-1-1-1-|

e-----------------|
B-----------------|
G-----------------| 
D-3-----0----1----|  x4
A-3-x16-0-x8-1-x8-|
D-3-----0----1----|

Outro: Gtr 1

e-----------|
B-----------|
G-13--12--8-|
D-----------|   for a while
A-11--10--6-|
D-----------|

e---------------|
B---------------|
G---------------|
D-3-3---0h1-3-3-|  x4
A-3-3---0h1-3-3-|
D-3-3---0h1-3-3-|

e-----|
B-----|
G-----|
D-3~--|
A-3~--|
D-3~--|

I know it's missing some things buts its a start for those of you who cant figure
it out by ear so enjoy!
comments
print report bad tab
8 comments total. Showing first comments.
+1 reply
Tomozaurus wrote on September 13 2008, 10:20 pm

Well, I think the songs in Eb. Your missing the lead bits. Its not great.

0 reply
dkm817 wrote on September 22 2008, 08:37 pm

were is gtr 1 for chorus i hear it clearly on the 3 4 and 5 string
Other than that not to shabby.

+1 reply
k2andrew37 wrote on December 15 2008, 06:34 pm

they tune a half step down through out most of the black swan

I want to post or [tab]
guest
You may want to rate the tab now too:
select rating
Please do not post tabs as comments. Select "correction" instead!