Oops, an error
Loading. Please wait.

Burning Years Tab

version 2
version 2

Whole song

Interactive

550 views 1 this week
no commentswrite comment
1 2 3 4 5
please rate
add to favorites
launch autoscroll
font size
0
reset
how to read this tab
guitar tuner
Autoscroll
slow
fast
+/-
esc
set tempo
stop
Help us to improve Ultimate-Guitar.com Take our survey!
×
Contributor
JaRRIzZ 163
Band: Story of the year
Song: Burning years
Album: Page Avenue
Tuning: Drop D
    
Intro:                    Let ring----------------------------------|
                                 
e|-------------------------------|---------0-----------------0------| x3
B|-------------------------------|-----6-----6--6--------------3----|
G|--7-7-7-101010-9-9-9-9-9-9---0-|---5---5-----5--------4-----------|
D|--0-0-0-0-0-0--0-0-0-101010--0-|-3------------------2----2--------|
A|--0-0-0-0-0-0--0-0-0-0-0-0-----|------------------0-----3---------|
D|--0-0-0-0-0-0--0-0-0-0-0-0-----|----------------------------------|

Verse 1:                               x2
                                     <--->
                                 
e|-------------------------------------|------------------------------------| 
B|-------------------------------------|------------------------------------|
G|--10-10---10-10-----5/7-------7------|---10-10----10-10-----5/7------7----|
D|--X--X-----X--X-----X-X-------X------|----X--X-----X--X-----X-X------X----|
A|--8--8--0--8--8--0--3/5--0-0--5--0-0-|-0--8--8--0--8--8--0--3/5--0-0-5-0-0|
D|--------0--------0-------0-0-----0-0-|-0--------0--------0-------0-0---0-0|

   
e|-----------------------------------------------------|\
B|-----------------------------------------------------| \
G|----12-12------12-12----11---------------------------|  \
D|----13-13------13-13----12---------------------------|   \
A|----10-10------10-10-----9----12-12-12-12-10-9-10----|    \
D|-0---0--0--0-0--0--0--0--0--0--0--0--0--0--0-0-0-----|     \
                                                              x2  
e|-----------------------------------------------------|     /
B|-----------------------------------------------------|    /
G|----12-12------12-12----11-----12-12/14-14\12-12-----|   /
D|----13-13------13-13----12-----12-12/14-14\12-12-----|  /
A|----10-10------10-10-----9-----10-12/12-12\10-10-X-X-| /
D|-0---0--0--0-0--0--0--0--0--0--10-10/12-12\10-10-X-X-|/

Last time(4th): 
e|-----------------------------------|
B|-----------------------------------|
G|-10~~~(10)----------------------------|
D|-10~~~(10)----------------------------|
A|--8~~~(8)----------------------------|
D|--8~~~(8)----------------------------|

Chorus 1:
                                                                          x3
e|--------------------0-0-0-0-0-0-0---------------------------------------|
B|--6-6-6-6-6-6-6-----X-X-X-X-X-X-X---------------------------------------|
G|--X-X-X-X-X-X-X-----5-5-5-5-5-5-5---------------------------------------|
D|--3-3-3-3-3-3-3--0--3-3-3-3-3-3-3--8-8-8-10-8-10-8-8-8-8-8-10-8-10-8----|
A|-----------------0--3-3-3-3-3-3-3--8-8-8--8-8--8-8-8-8-8-8--8-8--8-8--0-|
D|--------------------3-3-3-3-3-3-3--8-8-8--8-8--8-8-8-8-8-8--8-8--8-8--0-|

Last time(4th):
e|-----------------------------------------------------------------|
B|-----------------------------------------------------------------|
G|-----------------------------------------------------------------|
D|-0-0-0-0-0-0-0-0--3-3-3-3-3-3-3--5-5-5-5-5-5-5-5--8-8---1---1-1--|
A|-0-0-0-0-0-0-0-0--3-3-3-3-3-3-3--5-5-5-5-5-5-5-5--8-8-0-1-0-1-1--|
D|-0-0-0-0-0-0-0-0--3-3-3-3-3-3-3--5-5-5-5-5-5-5-5--8-8-0-1-0-1-1--|

Verse x1
Chorus x1

Bridge: 

Guitar 2
e|--------5-5-5-------------------------|----------------------|
B|--------6-6-6---------6-6-6-----------|----------------------|
G|--------X-X-X---------X-X-X--5-5-5--7-|----------------------|
D|-0-0-0--3-3-3--0-0-0--3-3-3--5-5-5--7-|-0-0-0-10-10-10-0-0-0-|
A|-0-0-0--0-0-0--0-0-0---------3-3-3--5-|-0-0-0--8--8--8-0-0-0-|
D|-0-0-0--0-0-0--0-0-0------------------|-0-0-0--8--8--8-0-0-0-|
 
                                         Last time:                      
e|--------5-5-5-------------------------|--------------------------------|
B|--------6-6-6---------6-6-6-----------|--------------------------------|
G|--------X-X-X---------X-X-X--5-5-5--7-|--------------------------------|
D|-0-0-0--3-3-3--0-0-0--3-3-3--5-5-5--7-|-8-8-8-8-8-8-8-8-10-10-10-10-10-|
A|-0-0-0--0-0-0--0-0-0---------3-3-3--5-|-6-6-6-6-6-6-6-6--8--8--8--8--8-|
D|-0-0-0--0-0-0--0-0-0------------------|-6-6-6-6-6-6-6-6--8--8--8--8--8-|

                                          x3                        x2
e|----------------------------------------|-------------------------|
B|----------------------------------------|-------------------------|
G|----------------------------------------|-------------------------|
D|-8-8-8-8-8-8-8-8-10-10-10-10-10-10-10-10|-12-12-12-12-12-12-12-12-|
A|-6-6-6-6-6-6-6-6--8--8--8--8--8--8--8--8|-10-10-10-10-10-10-10-10-|
D|-6-6-6-6-6-6-6-6--8--8--8--8--8--8--8--8|-10-10-10-10-10-10-10-10-|

Interclude: 
                          Let ring ---------------------------------|

e|---------------------0-0-0-----|---------0------------------0-----| 
B|---------------------0-0-0-----|-----6-----6-----------------3----|
G|--7-7-7-101010-9-9-9-9-9-9---0-|-------5-----5-0------4-----------|
D|--0-0-0-0-0-0--0-0-0-101010--0-|-3------------------2-----2-------|
A|--0-0-0-0-0-0--0-0-0-0-0-0-----|------------------0------3--------|
D|--0-0-0-0-0-0--0-0-0-0-0-0-----|----------------------------------|
                                               p.m.---------------|
e|---------------------0-0-0-----|--------0------------------------| 
B|---------------------0-0-0-----|----6-----6----------------------|
G|--7-7-7-101010-9-9-9-9-9-9---0-|------5-----5-0------------------|
D|--0-0-0-0-0-0--0-0-0-101010--0-|--3------------------------------|
A|--0-0-0-0-0-0--0-0-0-0-0-0-----|-----------------0-0-0-0-3-3-3-3-|
D|--0-0-0-0-0-0--0-0-0-0-0-0-----|---------------------------------|

Outro Chorus: 
                                                                          x3
e|--------------------0-0-0-0-0-0-0---------------------------------------|
B|--6-6-6-6-6-6-6-----X-X-X-X-X-X-X---------------------------------------|
G|--X-X-X-X-X-X-X-----5-5-5-5-5-5-5---------------------------------------|
D|--3-3-3-3-3-3-3--0--3-3-3-3-3-3-3--8-8-8-10-8-10-8-8-8-8-8-10-8-10-8----|
A|-----------------0--3-3-3-3-3-3-3--8-8-8--8-8--8-8-8-8-8-8--8-8--8-8--0-|
D|--------------------3-3-3-3-3-3-3--8-8-8--8-8--8-8-8-8-8-8--8-8--8-8--0-|

                            Pick scrape ------|
e|---------------------------------------------|-----------------0-0-0-0-0-0|
B|-----------------0---------------------------|-3-3-3-3-3-3-3---X-X-X-X-X-X|
G|-----------------5---------------------------|-X-X-X-X-X-X-X---5-5-5-5-5-5|
D|-0---0-----3-----3----8-8-8-10-8-10-8-8------|-6-6-6-6-6-6-6-0-3-3-3-3-3-3|
A|-0---0-----3-----3----8-8-8--8-8--8-8-8--17/-|---------------0-3-3-3-3-3-3|
D|-0---0-----3-----3----8-8-8--8-8--8-8-8--17/-|-----------------3-3-3-3-3-3|


e|---------------------------------------------------------------|
B|---------------------------------------------------------------|
G|-------------------------------------10-10-10-15-15-15-14-14---|
D|-8-8-8-10-8-10-8-8-8-8-8-10-8-10-8---10-10-10-15-15-15-14-14-0-|
A|-8-8-8--8-8--8-8-8-8-8-8--8-8--8-8-0--8--8--8-13-13-13-12-12-0-|
D|-8-8-8--8-8--8-8-8-8-8-8--8-8--8-8-0-------------------------0-|


e|-------------------------------------------------|
B|----------------8-8-8-8-8-8-8-8-8-8-8-8-8-8------|
G|-5-5-5-5-5-5/7--7-7-7-7-7-7-7-7-7-7-7-7-7-7------|
D|-X-X-X-X-X-X/X--5-5-5-5-5-5-5-5-5-5-5-5-5-5-0----|
A|-3-3-3-3-3-3/5--5-5-5-5-5-5-5-5-5-5-5-5-5-5-0----|
D|-3-3-3-3-3-3/5--5-5-5-5-5-5-5-5-5-5-5-5-5-5-0----|

                                         Final time:
e|------------------------------------------------|------------------------|
B|11-11-11-11-11-11-11-11-11-11-11-11-11-11-11-11-|------------------------|
G|10-10-10-10-10-10-10-10-10-10-10-10-10-10-10-10-|-8-8--8-8--7--7--7--5/7-|
D|-8--8--8--8--8--8--8--8--8--8--8--8--8--8--8--8-|-X-X--X-X--X--X--X--X-X-|
A|-8--8--8--8--8--8--8--8--8--8--8--8--8--8--8--8-|-6-6--6-6--5--5--5--3/5-|
D|-8--8--8--8--8--8--8--8--8--8--8--8--8--8--8--8-|------------------------|


Suggest correction What's this?
You can suggest a correction to this tab. Community and Mods will review your correction and vote to approve or reject it.
comments
We did not receive enough feedback on this tab! Please rate:
print report bad tab
1 2 3 4 5
I want to post or [tab]
guest
You may want to rate the tab now too:
select rating
Please do not post tabs as comments. Select "correction" instead!