Oops, an error
Loading. Please wait.

Choose Your Face Tab

3,271 views 3 this week
5 commentsread comments
1 2 3 4 5
excellent!
x 3
add to favorites
launch autoscroll
font size
0
reset
how to read this tab
guitar tuner
Autoscroll
slow
fast
+/-
esc
set tempo
stop
Help us to improve Ultimate-Guitar.com Take our survey!
×
Author
---------------------------------------------------------------------------
			 Choose Your Fate
		        Story of the Year
---------------------------------------------------------------------------

Hello, again, I will start out by saying that this song rocks!!!!!!!! I’m not kidding, I
a music video of this (fake) on YouTube and that thing was the best! I could not
how good they did! So I wanted to make the tab for the song (I didn’t take it from
So I got it and it isn’t that hard, so I’ll just say... Enjoy! (ps I don’t know about the
of the chorus, or verse. What I’m trying to say is I don’t know, in this song, if they
the chorus part to me the chorus or not; same as verse and everything else; except 
lol.) Sorry i called it Choose Your Face. It is a typo and it is really called Choose Your Fate.

Username: dkm817 (same on X box live)
Email: guitardrums@rockfan.com

Guitar 1: Rhythmic (C G C F A D)
Guitar 2: Lead     (C G C F A D)

Intro (presidential tape)

Guitar 1 (00:00)-(00:26)
D---------------------------------------------------------------------------|
A---------------------------------------------------------------------------|
F-10~-10~-10~~-10~~~~~~~~~~~~10~~-10-10~~-10~-5~~~~~~~5~~~~~~~5~~~~~~~5~~/0-|
C---------------------------------------------------------------------------|
G---------------------------------------------------------------------------|
C---------------------------------------------------------------------------|

Guitar 2 (00:00)-(00:15)
D--------------------------------------------------------------------|
A------------------3~~-3-3~~-3~-5br-5br-10b-9b---5br-5br-5br-10b-9b--|
F------------------6~~-6-6~~-6~-8br-8br-13b-12b--8br-8br-8br-13b-12--|b
C--------------------------------------------------------------------|
G--------------------------------------------------------------------|
C--------------------------------------------------------------------|

Guitar 2 continued (00:15)-(00:26)
D----------------------------------------------------|
A-5br-5br-10b-9b---5br-5br-5br-10b-9b--5b~~~~~~~r~/0-|
F-8br-8br-13b-12b--8br-8br-8br-13b-12b-8b~~~~~~~r~/0-|
C----------------------------------------------------|
G----------------------------------------------------|
C----------------------------------------------------|

Chorus 1

Guitar 1 & 2 (00:26)-(00:32)
D-----------------------------------------------------------------|
A-----------------------------------------------------------------|
F-----------------------------------------------------------------|
C-2--2--2--2--2--2----2-3-2--2--2--2--2--2-3-2--2--2--2--2--2-3-2-|
G-2--2--2--2--2--2----2-3-2--2--2--2--2--2-3-2--2--2--2--2--2-3-2-|
C-2--2--2--2--2--2----2-3-2--2--2--2--2--2-3-2--2--2--2--2--2-3-2-|

Guitar 1 & 2 (00:32)-(00:37)
D---------------------------------------------------------------------|
A---------------------------------------------------------------------|
F---------------------------------------------------------------------|
C-2--2--2--2--2-3-2--2--2--2--2--2-3-2--2--2--2--2--2-3-2--2--2--2--2-|
G-2--2--2--2--2-3-2--2--2--2--2--2-3-2--2--2--2--2--2-3-2--2--2--2--2-|
C-2--2--2--2--2-3-2--2--2--2--2--2-3-2--2--2--2--2--2-3-2--2--2--2--2-|
Guitar 1 (00:37)-(00:39)
D----------------------------|
A----------------------------|
F----------------------------|
C----------------------------|
G----------------------------|
C-9-9-12~-9h12p9-9h10p9--0-2-|

Verse

Guitar 2 (00:39)-(00:49)
D---------------------------------------------------|
A-5---5---3----------------5---5---3----------------|
F-------------5---5---4----------------5---5---4----|
C---2---2---2---2---2---2----2---2---2---2---2---2--| x4
G---------------------------------------------------|
C---------------------------------------------------|

Guitar 1 (00:49)-(00:55)
D------------------------------------------------------------------|
A------------------------------------------------------------------|
F------------------------------------------------------------------|
C-5~~~-5-5-5~-0~~~-0-0-0~-10~~~-10-10-10~-9~~~-9-9-9~-9-9-9~~~~~~~-|
G-5~~~-5-5-5~-0~~~-0-0-0~-10~~~-10-10-10~-9~~~-9-9-9~-9-9-9~~~~~~~-|
C-5~~~-5-5-5~-0~~~-0-0-0~-10~~~-10-10-10~-9~~~-9-9-9~-9-9-9~~~~~~~-|

Guitar 2 (00:49)-(00:55)
D------------------------------------------------------------------|
A------------------------------------------------------------------|
F------------------------------------------------------------------|
C-5~~~-5-5-5~-0~~~-0-0-0~-10~~~-10-10-10~-9~~~-9-9-9~-9-9-9~~~5/20-|
G-5~~~-5-5-5~-0~~~-0-0-0~-10~~~-10-10-10~-9~~~-9-9-9~-9-9-9~~~5/20-|
C-5~~~-5-5-5~-0~~~-0-0-0~-10~~~-10-10-10~-9~~~-9-9-9~-9-9-9~~~5/20-|

Chorus 1

Guitar 1 & 2 (00:55)-(00:59)
D-----------------------------------------------------------------|
A-----------------------------------------------------------------|
F-----------------------------------------------------------------|
C-2--2--2--2--2--2----2-3-2--2--2--2--2--2-3-2--2--2--2--2--2-3-2-|
G-2--2--2--2--2--2----2-3-2--2--2--2--2--2-3-2--2--2--2--2--2-3-2-|
C-2--2--2--2--2--2----2-3-2--2--2--2--2--2-3-2--2--2--2--2--2-3-2-|

Guitar 1 (00:59)-(01:06)
D---------------------------------------------------------------------|
A---------------------------------------------------------------------|
F---------------------------------------------------------------------|
C-2--2--2--2--2-3-2--2--2--2--2--2-3-2--2--2--2--2--2-3-2--2--2--2--2-|
G-2--2--2--2--2-3-2--2--2--2--2--2-3-2--2--2--2--2--2-3-2--2--2--2--2-|
C-2--2--2--2--2-3-2--2--2--2--2--2-3-2--2--2--2--2--2-3-2--2--2--2--2-|

Guitar 2 (00:59)-(01:06)
D--------------------------------------------------------------|
A-------------15-15-15-15-15-15-15-15--17-17-17-17-17-17-17-17-|
F-------------16-16-16-16-16-16-16-16--16-16-16-16-16-16-16-16-|
C-2--2--2--2--14-14-14-14-14-14-14-14--14-14-14-14-14-14-14-14-|
G-2--2--2--2--14-14-14-14-14-14-14-14--14-14-14-14-14-14-14-14-|
C-2--2--2--2--14-14-14-14-14-14-14-14--14-14-14-14-14-14-14-14-|

Guitar 1 (01:06)-(01:08)
D----------------------------|
A----------------------------|
F----------------------------|
C----------------------------|
G----------------------------|
C-9-9-12~-9h12p9-9h10p9--0-2-|

Verse

Guitar 2 (01:08)-(01:13)
D---------------------------------------------------|
A-5---5---3----------------5---5---3----------------|
F-------------5---5---4----------------5---5---4----|
C---2---2---2---2---2---2----2---2---2---2---2---2--| x2
G---------------------------------------------------|
C---------------------------------------------------|

Guitar 1 (01:13)-(01:18)
D------------------------------------------------------------------|
A------------------------------------------------------------------|
F------------------------------------------------------------------|
C-5~~~-5-5-5~-0~~~-0-0-0~-10~~~-10-10-10~-9~~~-9-9-9~-9-9-9~~~~~~~-|
G-5~~~-5-5-5~-0~~~-0-0-0~-10~~~-10-10-10~-9~~~-9-9-9~-9-9-9~~~~~~~-|
C-5~~~-5-5-5~-0~~~-0-0-0~-10~~~-10-10-10~-9~~~-9-9-9~-9-9-9~~~~~~~-|

Guitar 2 (01:13)-(01:18)
D------------------------------------------------------------------|
A------------------------------------------------------------------|
F------------------------------------------------------------------|
C-5~~~-5-5-5~-0~~~-0-0-0~-10~~~-10-10-10~-9~~~-9-9-9~-9-9-9~~~~9\0-|
G-5~~~-5-5-5~-0~~~-0-0-0~-10~~~-10-10-10~-9~~~-9-9-9~-9-9-9~~~~9\0-|
C-5~~~-5-5-5~-0~~~-0-0-0~-10~~~-10-10-10~-9~~~-9-9-9~-9-9-9~~~~9\0-|

Chorus 2

Guitar 1 (01:18)-(01:24)
D---------------------------------------|
A---------------------------------------|
F-9~-7~-9~~~-10-9--7-9~-7~-9~~~-10-9-7--|
C-9~-7~-9~~~-10-9--7-9~-7~-9~~~-10-9-7--| x2
G-7~-5~-7~~~-8--7--5-7~-5~-7~~~-8--7-5--|
C---------------------------------------|

Guitar 2 (01:18)-(01:24)
D-------------------------------------|
A-------------------------------------|
F-------------------------------------|
C-2~-0~-2~~~-3-2--0-2~-0~-2~~~-3-2-0--| x2
G-2~-0~-2~~~-3-2--0-2~-0~-2~~~-3-2-0--|
C-2~-0~-2~~~-3-2--0-2~-0~-2~~~-3-2-0--|

Guitar 1 (01:24)-(01:32)
D---------------------------------------|
A---------------------------------------|
F-9~-7~-9~~~-10-9--7-9~-7~-9~~~-10-9-7--|
C-9~-7~-9~~~-10-9--7-9~-7~-9~~~-10-9-7--| x2
G-7~-5~-7~~~-8--7--5-7~-5~-7~~~-8--7-5--|
C---------------------------------------|

Guitar 2 (01:24)-(01:32)
D-------------------------------------------------------------|
A-15-15-15--16-16-16--17-17-17--15-15-15--16-16-16--17-17-17--|
F-16-16-16--16-16-16--16-16-16--16-16-16--16-16-16--16-16-16--|
C-14-14-14--14-14-14--14-14-14--14-14-14--14-14-14--14-14-14--| x2
G-14-14-14--14-14-14--14-14-14--14-14-14--14-14-14--14-14-14--|
C-14-14-14--14-14-14--14-14-14--14-14-14--14-14-14--14-14-14--|

Bridge

Guitar 1 & 2 (01:32)-(01:39)
D----------------------------------------------------------------------|
A----------------------------------------------------------------------|
F-9-9-9-9-9-9-9-9--7-7-7-7-7-7-7-7--5-5-5-5-5-5-5-5--4-4-4-4-4-4-4-4-4-|
C-9-9-9-9-9-9-9-9--7-7-7-7-7-7-7-7--5-5-5-5-5-5-5-5--4-4-4-4-4-4-4-4-4-|
G-7-7-7-7-7-7-7-7--5-5-5-5-5-5-5-5--3-3-3-3-3-3-3-3--2-2-2-2-2-2-2-2-2-|
C----------------------------------------------------------------------|

Guitar 1 & 2 (01:39)-(01:43)
D---------------------------------------------------|
A---------------------------------------------------|
F-9-9-9-9-9-9-9-9--7-7-7-7-7-7-7-7--5-5-5-5-5-5-5-5-|
C-9-9-9-9-9-9-9-9--7-7-7-7-7-7-7-7--5-5-5-5-5-5-5-5-|
G-7-7-7-7-7-7-7-7--5-5-5-5-5-5-5-5--3-3-3-3-3-3-3-3-|
C---------------------------------------------------|

Guitar 1 & 2 (01:43)-(01:52)
D----------------------------------------------------|
A----------------------------------------------------|
F-4~~~~-4~~~~-5~~~~~~~~-4~~~~-4~~~~-5~~~~~~~~~~------|
C-4~~~~-4~~~~-5~~~~~~~~-4~~~~-4~~~~-5~~~~~~~~~~--5\0-|
G-2~~~~-2~~~~-3~~~~~~~~-2~~~~-2~~~~-3~~~~~~~~~~--5\0-|
C------------------------------------------------5\0-|

Breakdown

Guitar 1 & 2 (01:52)-(01:57)
D---------------------------------------------------------------|
A---------------------------------------------------------------|
F---------------------------------------------------------------|
C-2---2---2--2h3--2---2---2-------2---2---2--2h3--2---2---2-----|
G-2---2---2--2h3--2---2---2-------2---2---2--2h3--2---2---2--5--|
C-2---2---2--2h3--2---2---2--5p2--2---2---2--2h3--2---2---2-----|
pm.   .   .       .   .   .       .   .   .       .   .   .

Guitar 1 & 2 (01:57)-(02:04)
D---------------------------------------------------------------------|
A---------------------------------------------------------------------|
F---------------------------------------------------------------------|
C-2---2---2--2h3--2---2---2-------2---2---2--2h3----------------------|
G-2---2---2--2h3--2---2---2-------2---2---2--2h3--5*--6*--3*-5*-3*-1--|
C-2---2---2--2h3--2---2---2--5p2--2---2---2--2h3----------------------|
pm.   .   .       .   .   .       .   .   .

Guitar 1 & 2 (02:04)-(02:14)
D----------------------------------|
A----------------------------------|
F----------------------------------|
C-0---0---0--0-0---0---0---0--0-0--| x4
G-0---0---0--0-0---0---0---0--0-0--|
C-0---0---0--0-0---0---0---0--0-0--|
pm.   .   .    .   .   .   .    .

Interlude

Guitar 1 (02:14)-(02:21)
D-------------------------------------|
A-------------------------------------|
F-------------------------------------|
C-----5~~~-----5~~~-----5~~~~~~~~~~~~-|
G-2-2~~~~~-3-3~~~~~-5-5~~~~~~~~~~~~~~-|
C-------------------------------------|

Guitar 2 (02:14)-(02:21)
D-------------------------------------|
A-------------------------------------|
F-------------------------------------|
C-----5~~~-----5~~~-----5~~~~~~~-12/0-|
G-2-2~~~~~-3-3~~~~~-5-5~~~~~~~~~------|
C-------------------------------------|

Guitar 1 & 2 (02:21)-(02:35)
D--------------------------------------|
A--------------------------------------|
F--------------------------------------|
C-----5~~~-----5~~~-----5~~~-----5~~~--| x2
G-2-2~~~~~-3-3~~~~~-5-5~~~~~-5-5~~~~~--|
C--------------------------------------|

Guitar 1 & 2 (02:35)-(02:38)
D------------------------------------|
A------------------------------------|
F------------------------------------|
C-2-2-----2-2-------3----------------|
G-2-2-----2-2-------3----------------|
C-2-2-----2-2-------3----------------|

Chorus 2 (just a bit of a difference)

Guitar 1 (02:38)-(02:52)
D---------------------------------------|
A---------------------------------------|
F-9~-7~-9~~~-10-9--7-9~-7~-9~~~-10-9-7--|
C-9~-7~-9~~~-10-9--7-9~-7~-9~~~-10-9-7--| x4
G-7~-5~-7~~~-8--7--5-7~-5~-7~~~-8--7-5--|
C---------------------------------------|

Guitar 2 (02:38)-(02:52)
D-------------------------------------|
A-------------------------------------|
F-------------------------------------|
C-2~-0~-2~~~-3-2--0-2~-0~-2~~~-3-2-0--| x4
G-2~-0~-2~~~-3-2--0-2~-0~-2~~~-3-2-0--|
C-2~-0~-2~~~-3-2--0-2~-0~-2~~~-3-2-0--|

Bridge 2

Guitar 1 & 2 (02:52)-(02:59)
D-----------------------------------------------------------|
A-----------------------------------------------------------|
F-----------------------------------------------------------|
C-2---2---2-3-3-3---2---2-3-3-3---2---2-3-3-3---2---2-3-3-3-|
G-2---2---2-3-3-3---2---2-3-3-3---2---2-3-3-3---2---2-3-3-3-|
C-2---2---2-3-3-3---2---2-3-3-3---2---2-3-3-3---2---2-3-3-3-|

Chorus 2

Guitar 1 (02:59)-(03:06)
D---------------------------------------|
A---------------------------------------|
F-9~-7~-9~~~-10-9--7-9~-7~-9~~~-10-9-7--|
C-9~-7~-9~~~-10-9--7-9~-7~-9~~~-10-9-7--| x2
G-7~-5~-7~~~-8--7--5-7~-5~-7~~~-8--7-5--|
C---------------------------------------|

Guitar 2 (02:59)-(03:06)
D-------------------------------------|
A-------------------------------------|
F-------------------------------------|
C-2~-0~-2~~~-3-2--0-2~-0~-2~~~-3-2-0--| x2
G-2~-0~-2~~~-3-2--0-2~-0~-2~~~-3-2-0--|
C-2~-0~-2~~~-3-2--0-2~-0~-2~~~-3-2-0--|

Chorus Break Off

Guitar 1 (03:06)-(03:13)
D---------------------------------------|
A---------------------------------------|
F-9~-7~-9~~~-10-9--7-9~-7~-9~~~-10-9-7--|
C-9~-7~-9~~~-10-9--7-9~-7~-9~~~-10-9-7--| x2
G-7~-5~-7~~~-8--7--5-7~-5~-7~~~-8--7-5--|
C---------------------------------------|

Guitar 2 (03:06)-(03:13)
D---------------------------15-15-15-15--17-17-17-17-|
A-15-15-15-15--17-17-17-17--x--x--x--x---x--x--x--x--|
F-16-16-16-16--16-16-16-16--16-16-16-16--16-16-16-16-|
C-14-14-14-14--14-14-14-14--14-14-14-14--14-14-14-14-|
G-14-14-14-14--14-14-14-14--14-14-14-14--14-14-14-14-|
C-14-14-14-14--14-14-14-14--14-14-14-14--14-14-14-14-|

Guitar 1 & 2 (03:13)-(03:15)
D---------------|
A---------------|
F-5~----4~~~~~~-|
C-5~-2~-4~~~~~~-|
G-3~-2~-2~~~~~~-|
C----2~---------|

Outro

Guitar 1 & 2 (03:15)-(03:21)
D-----------------------------------------------------------------|
A-----------------------------------------------------------------|
F-----------------------------------------------------------------|
C-2--2--2--2--2--2----2-3-2--2--2--2--2--2-3-2--2--2--2--2--2-3-2-|
G-2--2--2--2--2--2----2-3-2--2--2--2--2--2-3-2--2--2--2--2--2-3-2-|
C-2--2--2--2--2--2----2-3-2--2--2--2--2--2-3-2--2--2--2--2--2-3-2-|

Guitar 1 & 2 (03:21)-(03:27)
D---------------------------------------------------------------------|
A---------------------------------------------------------------------|
F---------------------------------------------------------------------|
C-2--2--2--2--2-3-2--2--2--2--2--2-3-2--2--2--2--2--2-3-2--2--2--2--2-|
G-2--2--2--2--2-3-2--2--2--2--2--2-3-2--2--2--2--2--2-3-2--2--2--2--2-|
C-2--2--2--2--2-3-2--2--2--2--2--2-3-2--2--2--2--2--2-3-2--2--2--2--2-|

Guitar 1 & 2 (03:27)-(03:32)
D---------|
A---------|
F---------|
C-2--2--2-|
G-2--2--2-|
C-2--2--2-|

Tab Legend
h  -  hammer-on
p  -  pull-off
/  -  slide up
\  -  slide down
ps/-  pickslide up
ps\-  pickslide down
~  -  let ring
pm.-  palm mute
x  -  lighten fret hand
b  -  bend
r  -  return from bend
*  -  harmonic

Well, there you go. Good song, with the tab attached. Hope you enjoyed, and hope it was
good tab. Please email me about how I did. ROCK OUT!!!!!
Suggest correction
Give kudos to tab author, rate the tab!
1 2 3 4 5
comments
print report bad tab
5 comments total. Showing first comments.
0 reply
blinkerdude182 30 wrote on January 22 2009, 10:33 am

its called choose your fate

0 reply
dkm817 7,179 wrote on January 22 2009, 11:37 am

shoot sorry, i got carried away

0 reply
KueflerGuitar 51 wrote on February 9 2009, 10:35 pm

solid tab

guest
You may want to rate the tab now too:
select rating
Please do not post tabs as comments. Select "correction" instead!