Oops, an error
Loading. Please wait.

Divide And Conquer Bass Tab

version 2
version 2

Whole song

Interactive

358 views 1 this week
1 commentread comment
1 2 3 4 5
2 more votes to show rating
add to favorites
launch autoscroll
font size
0
reset
guitar tuner
Autoscroll
slow
fast
+/-
esc
set tempo
stop
Help us to improve Ultimate-Guitar.com Take our survey!
×
Difficulty
novice
  Story Of The Year Divide and Conquer
 The Tabs Not great and I cant really figure out what he's doing in the verse. But Just 
the tab and help it out. This is what I play with my band and it sounds pretty good. And 
been looking for a good tab for this song but havent been able to find one. Hope you all enjoy.


Intro 1x
G|---------------------------------------------/
D|---------------------------------------------/
A|---------------------------------------------/
D|--0~--0~--0~--0~--0~--0~--0~--0~-------------/

    Verse 1x
G|---------------------------------------------/
D|---------------------------------------------/
A|---------------------------------------------/
D|0000-0000--0000-0000--0000-0000--0000-0000---/

   Pre Chorus 1X
G|---------------------------------------------/
D|---------------------------------------------/
A|---------------------------------------------/
D|8--15-12--10--19-10--101010------------------/

   Chorus 1x
G|---------------------------------------------|
D|---------------------------------------------|
A|---------------------------------------------|
D|0000-1010101010-0000-1010101010-8(20x)-------|

G|---------------------------------------------------------------------|
D|---------------------------------------------------------------------|
A|---------------------------------------------------------------------|
D|0000-1010101010-0000-1010101010-8888-1515151515-8888-1515151515------|

 Verse 1x
G|---------------------------------------------/
D|---------------------------------------------/
A|---------------------------------------------/
D|0000-0000--0000-0000--0000-0000--0000-0000---/

 Pre Chorus 1x
G|---------------------------------------------/
D|---------------------------------------------/
A|---------------------------------------------/
D|8~----101010---------------------------------/

Chorus 3x
G|---------------------------------------------|
D|---------------------------------------------|
A|---------------------------------------------|
D|0000-1010101010-0000-1010101010-8(20x)-------|
 1x
G|-----------------------------------------------------------|
D|-----------------------------------------------------------|
A|-----------------------------------------------------------|
D|0000-1010101010-0000-1010101010 88888888 14h15-(5x)--------|

   Bridge 1x
G|---------------------------------------------|
D|---------------------------------------------|
A|---------------------------------------------|
D|0000-0000-0000-8888-0000-0000-0000-88888888--|
   4x
G|---------------------------------------------|
D|---------------------------------------------|
A|---------------------------------------------|
D|0000-0000-0000-0000-88888888-1010101010101010|

  Pre Chorus 1x
G|---------------------------------------------|
D|---------------------------------------------|
A|---------------------------------------------|
D|-8~---15-12-10~--101010----------------------|

Chorus 3x
G|---------------------------------------------|
D|---------------------------------------------|
A|---------------------------------------------|
D|0000-1010101010-0000-1010101010-8(20x)-------|
 1x
G|-----------------------------------------------------------|
D|-----------------------------------------------------------|
A|-----------------------------------------------------------|
D|0000-1010101010-0000-1010101010 88888888 14h15-(5x)--------|

 ending 1x
G|--------------------------------------------------------|
D|--------------------------------------------------------|
A|--------------------------------------------------------|
D|0000-0000-0000-8888-0000-0000-0000-8888 0000-0000-0000--|
Suggest correction
Give kudos to tab author, rate the tab!
1 2 3 4 5
comments
print report bad tab
1 comment total.
0 reply
bassplayer27 312 Aug 16, 2007 01:08 AM

Allright during the 2nd verse after the third part he plays the same thing as the guitar which would look like this.
Verse 1x
G|-------------------------------------------------------------/
D|--------------------------------787-----787------------------/
A|------------------------------------870-----870--------------/
D|0000-0000--0000-0000--0000-0000------------------0000-0000---/
then after that last part he hammers 7h8 on the D string at the end of the verse a couple times.
Verse 1x
G|-------------------------------------------------------------/
D|--------------------------------787-----787------------------7h87h87h87h87h8--/
A|------------------------------------870-----870--------------/
D|0000-0000--0000-0000--0000-0000------------------0000-0000---/

thats all ive picked up so far.



guest
You may want to rate the tab now too:
select rating
Wanna post a correction for this tab? Suggest correction