Oops, an error
Loading. Please wait.

Dream Is Over Tab

version 2
version 2

Whole song

2,128 views 9 this week
no commentswrite comment
1 2 3 4 5
accurate
x 1
add to favorites
launch autoscroll
font size
0
reset
how to read this tab
guitar tuner
Tab Pro tools
  • play this tab
  • loop segment
  • change instrument
  • show fretboard
  • metronome
Autoscroll
slow
fast
+/-
esc
set tempo
stop
Contributor
Difficulty
Tuning
novice
C# G# C# F# A# D#
Song: The Dream Is Over
Artist: Story Of The Year
Album: The Constant

Tuning: Drop Db

I tried tabbing the solo, but it sucked, so I'm afraid until I work it out, this 
will be without it.

INTRO - GUITAR 1

eb|---------------|
Bb|---------------|
Gb|-------17-19---|  X14
Db|-17-19---------|
Ab|---------------|
Db|---------------|

GUITAR 2

eb|--------------------------------|
Bb|--------------------------------|
Gb|--------------------------------|
Db|-00000000-------5555------5555--|  X2
Ab|-00000000-----------------------|
Db|-00000000--3333------5555-------|
              ....      ....


VERSE - Guitar enters 0:25

eb|---------------------------------------------------------------|
Bb|---------------------------------------------------------------|
Gb|---------------------------------------------------------------|
Db|-55-55-5\0----------------------5555------5555---777777777777--|
Ab|-------------------------------------------------777777777777--|
Db|-------------000000000000--3333------3333--------777777777777--|
                ............  ....      ....


CHORUS: Both guitars

eb|-----------------------------------|
Bb|-----------------------------------|
Gb|-----------------------------------|
Db|-8888-10101010-12121212-15151515---|
Ab|-8888-10101010-12121212-15151515---|
Db|-8888-10101010-12121212-15151515---|

Guitar 1

eb|-------------------------|
Bb|-------------------------|
Gb|-------------------------|
Db|-8888-10101010-00000000--|
Ab|-8888-10101010-00000000--|
Db|-8888-10101010-00000000--|

Guitar 2

eb|---------------------------------------------------|
Bb|---------------------------------------------------|
Gb|-------17-19-------17-19-------17-19-------17-19---|
Db|-17-19-------17-19-------17-19-------17-19---------|
Ab|---------------------------------------------------|
Db|---------------------------------------------------|

Both Guitars

eb|---------------------------------------------------|
Bb|---------------------------------------------------|
Gb|---------------------------------------------------|
Db|-8888-10101010-12121212-15151515-88888888--7--8--7-|
Ab|-8888-10101010-12121212-15151515-88888888--7--8--7-|
Db|-8888-10101010-12121212-15151515-88888888--7--8--7-|


REPEAT INTRO

REPEAT VERSE

REPEAT CHORUS


2:00 ("The water's rushing in")

eb|------------------------|--------------------------------|
Bb|------------------------|--------------------------------|
Gb|------------------------|--------------------------------|
Db|-000--000--888--101010--|--000- 000-888-101010--7--8--7--|
Ab|-000--000--888--101010--|--000--000-888-101010--7--8--7--|
Db|-000--000--888--101010--|--000--000-888-101010--7--8--7--|


SOLO: Backing guitar

eb|----------------------------------------------------|
Bb|----------------------------------------------------|
Gb|----------------------------------------------------|
Db|-12121212-8888-3333-10101010-12121212-3333-8888888--|
Ab|-12121212-8888-3333-10101010-12121212-3333-8888888--|
Db|-12121212-8888-3333-10101010-12121212-3333-8888888--|

eb|--------------------------------------------------------------|
Bb|--------------------------------------------------------------|
Gb|--------------------------------------------------------------|
Db|-12121212-8888-3333-10101010-12121212-3333-77777777777777777--|
Ab|-12121212-8888-3333-10101010-12121212-3333-77777777777777777--|
Db|-12121212-8888-3333-10101010-12121212-3333-77777777777777777--|


(2:44) Guitar 1

eb|---------------------------------------------------|
Bb|---------------------------------------------------|
Gb|---------------------------------------------------|
Db|-0---------3---------5--------0------33333333-5----|
Ab|-0---------3---------5--------0------33333333-5----|
Db|-0---------3---------5--------0------33333333-5----|
                                        ........ .

Guitar 2

eb|---------------------------------------------------|
Bb|---------------------------------------------------|
Gb|-------17-19-------17-19-------17-19-------17-19---|
Db|-17-19-------17-19-------17-19-------17-19---------|
Ab|---------------------------------------------------|
Db|---------------------------------------------------|


LAST CHORUS: (2:53)

eb|-----------------------------------------------------|
Bb|-----------------------------------------------------|
Gb|-----------------------------------------------------|
Db|-8888-10101010-12121212-15151515-8888-10101010-0000--|
Ab|-8888-10101010-12121212-15151515-8888-10101010-0000--|
Db|-8888-10101010-12121212-15151515-8888-10101010-0000--|

eb|--------------------------------------------------------------|
Bb|--------------------------------------------------------------|
Gb|--------------------------------------------------------------|
Db|-8888-10101010-12121212-15151515-8888-10101010-8888-10101010--|
Ab|-8888-10101010-12121212-15151515-8888-10101010-8888-10101010--|
Db|-8888-10101010-12121212-15151515-8888-10101010-8888-10101010--|

eb|-------------------------------------------------------------------|
Bb|-------------------------------------------------------------------|
Gb|-------------------------------------------------------------------|
Db|-12121212-15151515-8888-10101010-12121212-15151515-7777-8888-7777--|
Ab|-12121212-15151515-8888-10101010-12121212-15151515-7777-8888-7777--|
Db|-12121212-15151515-8888-10101010-12121212-15151515-7777-8888-7777--|

REPEAT INTRO

END
comments
We did not receive enough feedback on this tab! Please rate:
print report bad tab
1 2 3 4 5
I want to post or [tab]
guest
You may want to rate the tab now too:
select rating
Please do not post tabs as comments. Select "correction" instead!