Oops, an error
Loading. Please wait.

Heart Of Polka Is Still Beating Tab

495 views 1 this week
3 commentsread comments
1 2 3 4 5
please rate
add to favorites
launch autoscroll
font size
0
reset
how to read this tab
guitar tuner
Autoscroll
slow
fast
+/-
esc
set tempo
stop
Help us to improve Ultimate-Guitar.com Take our survey!
×
Author
Difficulty
Tuning
Tabbers playing skills
novice
D A D G B E
advanced
Half Step Down
Intro
e|---------------------------------------------------|
b|-55555555-77777777-88888888-77777777---------------|
g|---------------------------------------------------|
d|-22222222-44444444-55555555-44444444---------------|
a|---------------------------------------------------|
d|---------------------------------------------------|
Intro Guitar 2
e|---------------------------------------------------|
b|-77777777-88888888-88888888-77777777---------------|
g|---------------------------------------------------|
d|-44444444-55555555-55555555-44444444---------------|
a|---------------------------------------------------|
d|---------------------------------------------------|

e|---------------------------------------------------|
b|---------------------------------------------------|
g|---------------------------------------------------|
d|---------------------------------------------------|
a|---------------------------------------------------|
d|--2220-2220-2220-2220-2220-2220-2220-2220----------|

Verse Guitar 1 x2
e|---------------------------------------------------|
b|---------------------------------------------------|
g|---------------------------------------------------|
d|--2220-2220-2220-2220-200-5-5-00000----------------|
a|--2220-2220-2220-2220-200-5-5-00000----------------|
d|--2220-2220-2220-2220-200-5-5-00000----------------|

Verse continued
e|---------------------------------------------------|
b|---------------------------------------------------|
g|---------------------------------------------------|
d|--2220-2220-2220-2220-2220-2220-2220-2220-0200-5-5-|
a|--2220-2220-2220-2220-2220-2220-2220-2220-0200-5-5-|
d|--2220-2220-2220-2220-2220-2220-2220-2220-0200-5-5-|

e|---------------------------------------------------|
b|---------------------------------------------------|
g|---------------------------------------------------|
d|-00000000-------------------------------------22---|
a|-00000000-------------------------------------22---|
d|-00000000--2220-2220-2220-2220-2220-2220-2220-22---|
                                                ..
Verse Guitar 2
e|---------------------------------------------------|
b|---------------------------------------------------|
g|-----5h7-5-----------------------------------------|
d|-5h7-------5---------------------------------------|
a|---------------------------------------------------|
d|---------------------------------------------------|

Chorus x3
e|---------------------------------------------------|
b|---------------------------------------------------|
g|-4444444444-2-5------------------------------------|
d|-4444444444-2-5--5555555555555555------------------|
a|-2222222222-0-3--5555555555555555------------------|
d|-----------------5555555555555555------------------|
Pre Verse (only one guitar)
e|---------------------------------------------------|
b|---------------------------------------------------|
g|---------------------------------------------------|
d|------------------------------------22-------------|
a|------------------------------------22-------------|
d|-2220-2220-2220-2220-2220-2220-2220-22-------------|
                                      ..
Repeat Verse
Repeat Chorus

Bridge
e|---------------------------------------------------|
b|---------------------------------------------------|
g|---------------------------------------------------|
d|--44--244--244--244--5555--------------------------|
a|--44--244--244--244--5555--------------------------|
d|--44--244--244--244--5555--------------------------|
    Play through bridge twice, minus the 5's and add
    another 244 on the second ending

Bridge Continued
e|---------------------------------------------------|
b|---------------------------------------------------|
g|---------------------------------------------------|
d|--444~-~-------------------------------------------|
a|--444~-----55------55-------55-------55-------55---|
d|--444~-444----24444----24444----24444----24444-----|
    ..
e|---------------------------------------------------|
b|---------------------------------------------------|
g|---------------------------------------------------|
d|---------------------------------------------------|
a|--------55-------55------5555----------------------|
d|--24444----24444----2444-4444----------------------|

e|----------------------------------------------------------------------|
b|----------------------------------------------------------------------|
g|-----77------77------77------7777-----77------77------77------77------|
d|-444-77-2444-77-2444-77-2444-7777-444-77-2444-77-2444-77-2444-77-2444-|
a|-444-55-2444-55-2444-55-2444-5555-444-55-2444-55-2444-55-2444-55-2444-|
d|-444----2444----2444----2444------444----2444----2444----2444----2444-|

e|----------------------------------------------------------------------|
b|----------------------------------------------------------------------|
g|----------------------------------------------------------------------|
d|-44-55-22-44-55-22-44-55-44445-44445-44-55-22-44-55-22-44-55-44445-0--|
a|-44-55-22-44-55-22-44-55-44445-44445-44-55-22-44-55-22-44-55-44445-0--|
d|-44-55-22-44-55-22-44-55-44445-44445-44-55-22-44-55-22-44-55-44445-0--|
                           ....  ....                          ....
Repeat Chorus

Last Chorus (guitar 2)
e|---------------------------------------------------|
b|-----7-6----7-6---7-6---7-6-9----------------------|
g|---------7------7-----7----------------------------|
d|---------------------------------------------------|
a|---------------------------------------------------|
d|---------------------------------------------------|
Repeat

e|---------------------------------------------------|
b|---------------------------------------------------|
g|---------------------------------------------------|
d|---------------------------------------------------|
a|---------------------------------------------------|
d|--2220-2220-2220-2220-2220-2220-2220-2220----------|
Repeat as necessary

Outro
e|----------------------------------------------------------------------|
b|----------------------------------------------------------------------|
g|----------------------------------------------------------------------|
d|--222-222-222-222-222-222-222-222-222-222-222-222-222-222-222-222-22--|
a|--222-222-222-222-222-222-222-222-222-222-222-222-222-222-222-222-22--|
d|--222-222-222-222-222-222-222-222-222-222-222-222-222-222-222-222-22--|

I know there are some parts missing, and some incorrect notes, but i haven't found this 
anywhere else, so any corrections, or comments, e-mail me at jastrate@twcny.rr.com or im 
at gax30gutarist.
Suggest correction
What's this?
You can suggest a correction to this tab. Community and Mods will review your correction and vote to approve or reject it.
comments
We did not receive enough feedback on this tab! Please rate:
print report bad tab
1 2 3 4 5
3 comments total.
0 reply
athsmador 568 wrote on September 2 2006, 12:13 am

what album is this on its in Live In The Lou but not PA or ITWOD

0 reply
RockMusicFan 625 wrote on December 16 2006, 12:56 am

it's a b-side

0 reply
athsmador 568 wrote on December 25 2006, 05:12 pm

k

guest
You may want to rate the tab now too:
select rating
Please do not post tabs as comments. Select "correction" instead!