Oops, an error
Loading. Please wait.

Holding On To You Bass Tab

317 views 1 this week
no commentswrite comment
1 2 3 4 5
please rate
add to favorites
launch autoscroll
font size
0
reset
guitar tuner
Tab Pro tools
  • play this tab
  • loop segment
  • change instrument
  • show fretboard
  • metronome
Autoscroll
slow
fast
+/-
esc
set tempo
stop
Contributor
Tuning
C G C F A D
0:08
F|-----------------------------------------------------------------------|
C|-5---------------------------------------------------------------------|
G|---5-----------------------------------1-1-1-1-1-1-1-1-8-8-8-8-8-8-8-8-|
C|-----7-5-5-5-5-5-5-5-5-1-1-1-1-1-1-1-1---------------------------------|

0:18
F|------------------------------------------------------------------|
C|-5-5-5-5-5-5-5-5--------------------------------------------------|
G|-----------------6-6-6-6-6-6-6-6------------------8-8-8-8-8-6-7-8-|
C|---------------------------------8-8-8-8-8-8-8h10-----------------|

0:27
F|------------------------------------------------------------------|
C|-5-5-5-5-5-5-5-5-----------------8-8-8-8-8-8-8h10-----------------|
G|-----------------6-6-6-6-6-6-6-6------------------8-8-8-8-8-6-7-8-|
C|------------------------------------------------------------------|

0:36
F|-----------------------------------------------------------------------|
C|-----------------------------------------------------------------------|
G|-----------------------------------------------------------------------|
C|-5-5-5-5-5-5-5h8-1-1-1-1-1-1-1-1-8-8-8-8-8-8-8-10-3-3-3-3-3-3-3-3-5~~--|

0:51
F|------------------------------------------------------------------|
C|------------------------------------------------------------------|
G|------------------------------------------------------------------|
C|-1-1-1-1-1-1-1-1-8-8-8-8-8-8-8h10-3-3-3-3-3-3-3-3-3-3-3-3-3-3-0-0-|

1:00
F|------------------------------------------------------------------|
C|------------------------------------------------------------------|
G|--------------------------------------------------8-8-8-8-8-6-7-8-|
C|-1-1-1-1-1-1-1-1-8-8-8-8-8-8-8h10-3-3-3-3-3-3-3-3-----------------|

1:09
F|------------------------------------------------------------------|
C|-5-5-5-5-5-5-5h8-----------------8-8-8-8-8-8-8h10-----------------|
G|-----------------6-6-6-6-6-6-6-6------------------8-8-8-8-8-6-7-8-|
C|------------------------------------------------------------------|

1:18
F|------------------------------------------------------------------|
C|-5-5-5-5-5-5-5h8---------------8-8-8-8-8-8-8-8h10-----------------|
G|-----------------6-6-6-6-6-6-6--------------------8-8-8-6h8-6-7-8-|
C|------------------------------------------------------------------|

1:28
F|------------------------------------------------------------------|
C|-5-5-5-5-5-5-5h8-----------------8-8-8-8-8-8-8h10-----------------|
G|-----------------6-6-6-6-6-6-6-6------------------8-8-8-8-8-6-7-8-|
C|------------------------------------------------------------------|

1:37
F|------------------------------------------------------------------|
C|-5-5-5-5-5-5-5h8-----------------8-8-8-8-8-8-8-8-8-8-7-7-3-3-0-0--|
G|-----------------6-6-6-6-6-6-6-6----------------------------------|
C|------------------------------------------------------------------|

1:47
F|------------------------------------------------------------------|
C|------------------------------------------------------------------|
G|------------------------------------------------------------------|
C|-1-1-1-1-1-1-1-1-8-8-8-8-8-8-8h10-3-3-3-3-3-3-3-3-3-3-3-3-3-3-0-0-|

1:56
F|------------------------------------------------------------------|
C|------------------------------------------------------------------|
G|----------------------------------------------------------8-8-8-8-|
C|-1-1-1-1-1-1-1-1-8-8-8-8-8-8-8h10-3-3-3-3-3-3-3-3-3--33-3---------|

2:05
F|--------------------------------------------------|
C|--------------------------------------------------|
G|--------------------------------------------------|
C|-5--5--3----5--8--3----5--5--3----1-1-1-1-3-3-3-3-|

2:15
F|------------------------------------------------------------------|
C|------------------------------------------------------------------|
G|------------------------------------------------------------------|
C|-5--5--3----5--8--3----5--5--3----1-1-1-1-1-1-1-1-3-3-3-3-3-3-3-3-|

2:26
F|-----------------------------------------|
C|-----------------------------------------|
G|-----------------------------------------|
C|-5----1----8----3----5----1----8----3----|

2:45
F|-----------------------------------------------------------------|
C|-----------------------------------------------------------------|
G|-----------------------------------------------------------------|
C|-1-1-1-1-1-1-1-1-8-8-8-8-8-8-8-8-3-3-3-3-3-3-3-3-3-3-3-3-3-3-0-0-|

2:54
F|-------------------------------------------------------------------|
C|-------------------------------------------------------------------|
G|----------------------------------------------------------88888888-|
C|-1-1-1-1-1-1-1-1-8-8-8-8-8-8-8h10-3-3-3-3-3-3-3-3-3-3-3-3----------|

3:03
F|-----------------------------------------------------------------|
C|-----------------------------------------------------------------|
G|-----------------------------------------------------------------|
C|-1-1-1-1-1-1-1-1-8-8-8-8-8-8-8-8-3-3-3-3-3-3-3-3-3-3-3-3-3-3-0-0-|

3:13
F|------------------------------------------------------------------|
C|------------------------------------------------------------------|
G|------------------------------------------------------------------|
C|-1-1-1-1-1-1-1-1-8-8-8-8-8-8-8-10-3-3-3-3-3-3-3-3-3-3-3-3-3-1-2-3-|

3:22
F|--------------------------------------------------|
C|--------------------------------------------------|
G|--------------------------------------------------|
C|-5--5--3----5--8--3----5--8--3----1----8----3-----|
Tabbed by Dave Vucko
comments
We did not receive enough feedback on this tab! Please rate:
print report bad tab
1 2 3 4 5
I want to post or [tab]
guest
You may want to rate the tab now too:
select rating
Please do not post tabs as comments. Select "correction" instead!