Oops, an error
Loading. Please wait.

Im Alive Bass Tab

version 2
version 2

Whole song

211 views 1 this week
no commentswrite comment
1 2 3 4 5
please rate
add to favorites
launch autoscroll
font size
0
reset
guitar tuner
Autoscroll
slow
fast
+/-
esc
set tempo
stop
Help us to improve Ultimate-Guitar.com Take our survey!
×
Author
Tuning
C G C F A D
Intro
F|---------------------|
C|---------------------|
G|-1----5----1----5----|
C|---------------------|

Verse 0:12
F|--------------------------------------------------------|
C|--------------------------------------------------------|
G|-5-3-1---1-1-1---5---5-5--7-8-1---1-1---1-5---5-5---5-3-|
C|--------------------------------------------------------|

0:27
F|----------------------------------------------------------------------|
C|----------5-7-8-------------------------5-7-8-------------------------|
G|-1---1-1--------5---5-5--5-7-8-1---1-1--------5-5-5-5-5-5-5-5-5-5-5-5-|
C|----------------------------------------------------------------------|

Pre Chorus 0:40
F|-------------------------------------------------------------------|
C|-------------------------------------------------------------------|
G|-1---1---1---1---5---5---5---7--81---1---1---1---5---5---5---5-7-8-|
C|-------------------------------------------------------------------|

0:54
F|-------------------------------------------------|
C|---------------------------------------5-3---3-1-|
G|-3-3-3-3-3-3-3-3-3-1-1-1-3-3-3-3-3-3-3-----1-----|
C|-------------------------------------------------|

F|-------------------------------------------------|
C|-------------------------------------------------|
G|-3-3-3-3-3-3-3-3-3-1-1-1-3-3-3-3-3-3-3-3-3-3-----|
C|-------------------------------------------------|

Chorus 1:08
F|-------------------------------------------------|
C|-------------------------------------3-----------|
G|-------------------------------------------------|
C|-7-7-7-7-7-7-8-8-8-8-8-8-3-3-3-3-3-3---3-3-3-3-3-|

1:15
F|-------------------------------------------------|
C|-------------------------------------3-----------|
G|-------------------------------------------0-1-3-|
C|-7-7-7-7-7-7-8-8-8-8-8-8-3-3-3-3-3-3---3-3-------|

1:21
F|-------------------------------------------------|
C|-------------------------------------------------|
G|-------------------------------------3-3-3-3-3-3-|
C|-7-7-7-7-7-7-8-8-8-8-8-8-3-3-3-3-3-3-------------|

1:28
F|-------------------------------------------------|
C|-------------------------------------------------|
G|-------------------------------------------------|
C|-7-7-7-7-7-7-8-8-8-8-8-8-3~~~~~~~~~--------------|

Verse 1:35
F|--------------------------------------------------|
C|------8-7-5----------------8-7-5------------------|
G|-1----------5---5-5--------------5--5-5-5-5-5-5-5-|
C|------------0---0-0---8---------------------------|

Pre Chorus 1:49
F|-------------------------------------------------------------------|
C|-------------------------------------------------------------------|
G|-1---1---1---1---5---5---5---7--81---1---1---1---5---5---5---5-7-8-|
C|-------------------------------------------------------------------|

F|-------------------------------------------------|
C|---------------------------------------5-3---3-1-|
G|-3-3-3-3-3-3-3-3-3-1-1-1-3-3-3-3-3-3-3-----1-----|
C|-------------------------------------------------|

F|---------------------------------------------------|
C|---------------------------------------------------|
G|-3-3-3-3-3-3-3-3-3-1-1-1-3-3-3-3-3-3/15-15-15-15\--|
C|---------------------------------------------------|

Chorus 2:16
F|-------------------------------------------------|
C|-------------------------------------------------|
G|-------------------------------------------------|
C|-7-7-7-7-7-7-8-----8-8-8-3-3-3-3-3-3-3-3-3-3---3-|

2:23
F|-------------------------------------------------|
C|-------------------------------------3-3---7-5-3-|
G|-------------------------------------------------|
C|-7-7-7-7-7-7-8-----8-8-8-3-3-3-3-3-3-----3-------|

2:30
F|--------------------------------------------------|
C|--------------------------------------------------|
G|-------------------------------------3-3-3-3--585-|
C|-7-7-7-7-7-7-8-8-8-8-8-8-3-3-3-3-3-3--------------|

2:37
F|-------------------------------------------------|
C|-------------------------------------------------|
G|-------------------------------------------------|
C|-7-7-7-7-7-7-8-8-8-8-8-8-3-3-3-3-3-3-3-3-3-3-3-3-|

2:44
F|------------------------------------------------------------|
C|------------------------------------------------------------|
G|-5---5---5---5-87-5---5---5---5-7-8-3-3-3-3-3-3-3-3-3-3-1-3-|
C|------------------------------------------------------------|

2:54
F|------------------------------------------------------------|
C|------------------------------------------------------------|
G|-5---5---5---5-87-5---5---5---5-7-8-3-3-3-3-3-3-3-3-3-3-3-3-|
C|------------------------------------------------------------|

3:05
F|-------------------------------------------------|
C|------------/8-8-8-------------------------------|
G|-1-1-1-1-1-1-------8-8-8-3-3-3-3-3-3-3-3-3-3-3-3-|
C|-------------------------------------------------|

F|-----------------------------|
C|-----------------------------|
G|-1-1-1-1-1-1-/15-13-12-8-5-3-|
C|-----------------------------|

3:15
F|-------------------------------------10-----|
C|--------------------------------------------|
G|--------------------------------------------|
C|-3----5----8----8-7-8-3----5----8-------8\--|

F|-------------------------------------------------|
C|-------------------------------------------------|
G|-3-3-3-3-3-3-3-3-3-1-1-1-3-3-3-3-3-3-3-3-3-1-1-1-|
C|-------------------------------------------------|

F|-------------------------------------------------|
C|-------------------------------------------------|
G|-3-3-3-3-3-3-3-3-3-1-1-1-3-3-3-3-3-3-3-3-3-3-----|
C|-------------------------------------------------|

Chorus 3:42
F|-------------------------------------------------|
C|-------------------------------------3-----------|
G|-------------------------------------------------|
C|-7-7-7-7-7-7-8-8-8-8-8-8-3-3-3-3-3-3---3-3-3---3-|

3:49
F|-------------------------------------------------|
C|-------------------------------------------3-----|
G|---------------------------------------------0-1-|
C|-7-7-7-7-7-7-8-8-8-8-8-8-3-3-3-3-3-3-3-3-3-------|

3:55
F|-------------------------------------------------|
C|-------------------------------------------------|
G|-------------------------------------3-5-3-5-3-1-|
C|-7\----------8-----8-8-8-3-3-3-3-3-3-------------|

F|-------------------------------------------------|
C|-------------------------------------------------|
G|-------------------------------------------------|
C|-7-7-7-7-7-7-8-8-8-8-8-8-3~~~~~~~~~--------------|
Tabbed by Dave Vucko
Suggest correction
Give kudos to tab author, rate the tab!
1 2 3 4 5
comments
print report bad tab
guest
You may want to rate the tab now too:
select rating
Wanna post a correction for this tab? Suggest correction