Oops, an error
Loading. Please wait.

In Her Bedroom Tab

version 1
version 1

Whole song

Interactive

442 views 1 this week
no commentswrite comment
1 2 3 4 5
please rate
add to favorites
launch autoscroll
font size
0
reset
how to read this tab
guitar tuner
Autoscroll
slow
fast
+/-
esc
set tempo
stop
Help us to improve Ultimate-Guitar.com Take our survey!
×
-|---------------------------------------------------------------------------|
-|----------------------2----------------------------------------------------|
-|----------------------2----------------------------------------------------|
-|---------------------4--------------4-4-4-4-4-4-4-4-4-4--------------------|
-|--------------------4---------------4-4-4-4-4-4-4-4-4-4--------------------|
-|-------------------2----------------2-2-2-2-2-2-2-2-2-2--------------------|
                                      pm.................
-|---------------------------------------------------------------------------|
-|----------------------7----------------------------------------------------|
-|----------------------6----------------------------------------------------|
-|---------------------7--------------7-7-7-7-7-7-7-7-7-7--------------------|
-|--------------------7---------------7-7-7-7-7-7-7-7-7-7--------------------|
-|-------------------5----------------5-5-5-5-5-5-5-5-5-5--------------------|
                                      pm.................           (x2)
-|---------------------------------------------------------------------------|
-|---------------------------------------------------------------------------|
-|---------------------------------------------------------------------------|
-|------------------------------4-4-4-4-4-4-4-4-4-4-4-4----------------------|
-|------------------------------4-4-4-4-4-4-4-4-4-4-4-4----------------------|
-|---------------------------/--2-2-2-2-2-2-2-2-2-2-2-2----------------------|
 intro 1 play with distortion

-|--------------------------------------------------------------------------|
-|--------------------------------------------------------------------------|
-|--------------------------------------------------------------------------|
-|------7-7------7-7-----7-7------7-7---------------------------------------|
-|------5-5-7v---5-5-7v--5-5-7v---5-5-7v------------------------------------|
-|--------------------------------------------------------------------------|
                                         repeat sometimes then back to
intro
-|---------------------------------------------------------------------------|
-|---------------------------------------------------------------------------|
-|---------------------------------------------------------------------------|
-|------------------------------4-4-4-4-4-4-4-4-4-4-4-4----------------------|
-|------------------------------4-4-4-4-4-4-4-4-4-4-4-4----------------------|
-|---------------------------/--2-2-2-2-2-2-2-2-2-2-2-2----------------------|
  INTRO 2 with distortion

-|-----------------------------------------|-|-------------------------------|
-|-----------------------------------------|-|-------------------------------|
-|-----------------------------------------|-|-------------------------------|
-|------7-7-------7-7------7-7------7-7----|-|--4-4-4-4-4-4-4-4-4-4-4-4------|
-|------5-5-7v----5-5-7v---5-5-7v---5-5-7v-|-|--4-4-4-4-4-4-4-4-4-4-4-4------|
-|-----------------------------------------|-|--2-2-2-2-2-2-2-2-2-2-2-2------|
                                                intro b4 chorus
CHORUS

-|----------------------|----------------------------------------------------|
-|----------------------|----------------------------------------------------|
-|----------------------|----------------------------------------------------|
-|----7-7-7-------------|------------------9-9-9---9-9-9-9-9-----7-7-7-7-7-7-|
-|----5-5-5--7-9-9b-9-7-|------------------7-7-7---7-7-7-7-7-9v--5-5-5-5-5-5-|
-|----------------------|----------------------------------------------------|
                          Before CHORUS   PM.....                 repeat 2x

-|---------------------------------------------------------------------------|
-|---------------------------------------------------------------------------|
-|---------------------------------------------------------------------------|
-|-----------------9-9-9---9-9-9-9-9-----7-7-7-7-7-7-------------------------|
-|-----------------7-7-7---7-7-7-7-7-9v--5-5-5-5-5-5-----------4h5p4v-p0-----|
-|---------------------------------------------------------------------------|
  Before Chorus  PM.....                 repeat 2x   then...

-|---------------------------------------------------------------------------|
-|---------------------------------------------------------------------------|
-|---------------------------------------------------------------------------|
-|----------------------------------------7-7------7-7------7-7------7-7-----|
-|---------4h5p4v-p0----7-7-7v---4-4h5p4--5-5-7v---5-5-7v---5-5-7v---5-5-7v--|
-|----------------------5-5------2-------------------------------------------|
   coming from..then... CHORUS                                   repet all!!!

-|-----------------------------------------------------------------------------|
-|-----------------------------------------------------------------------------|
-|-----------------------------------------------------------------------------|
-|--7--------------------------------------------------------------------------|
-|--5--------------------------------------------------------------------------|
-|-----------------------------------------------------------------------------|
      let ring........

-|---------------------------------------------------------------------------|
-|---------------------------------------------------------------------------|
-|---------------------------------------------------------------------------|
-|----------------------------------------------------------7-7-7-7-7-7------|
-|--------------7-7-7-7-7-7----4-4-4-4-4-4---2-2-2-2-2-2----5-5-5-5-5-5------|
-|--------------5-5-5-5-5-5----2-2-2-2-2-2---0-0-0-0-0-0---------------------|
  INTERLUDE  PM..............................................................

-|----------------------|----------------------------------------------------|
-|----------------------|----------------------------------------------------|
-|----------------------|----------------------------------------------------|
-|-----------7-7-7-7-7-7|----------------------------------------7-7-7-7-7-7-|
-|-----------5-5-5-5-5-5|-7-7-7-7-7-7--4-4-4-4-4-4--2-2-2-2-2-2--5-5-5-5-5-5-|
-|----------------------|-5-5-5-5-5-5--2-2-2-2-2-2--0-0-0-0-0-0--------------|
  2nd time  heavy         Gt.1

-|---------------------------------------------------------------------------|
-|---------------------------------------------------------------------------|
-|----13h14-14---13h14-14-------------------9h11-11-11-9h11-11-11-/13--------|
-|---------------------------------------------------------------------------|
-|---------------------------------------------------------------------------|
-|---------------------------------------------------------------------------|
  Gt.2 solo part        lots of times,then    "play around with the strings"

-|---------------------------------------------------------------------------|
-|---------------------------------------------------------------------------|
-|---------------------------------------------------------------------------|
-|-----------7--------------7--------------7---------------7----------7------|
-|-----------5--------------5--------------5---------------5----------5------|
-|---------------------------------------------------------------------------|
  END       let ring through im not sure if this is perfect but go ahead try it
Suggest correction
Give kudos to tab author, rate the tab!
1 2 3 4 5
comments
print report bad tab
guest
You may want to rate the tab now too:
select rating
Please do not post tabs as comments. Select "correction" instead!