Oops, an error
Loading. Please wait.

In Her Bedroom Tab

version 2
version 2

Whole song

Interactive

405 views 1 this week
1 commentread comment
1 2 3 4 5
accurate
x 3
add to favorites
launch autoscroll
font size
0
reset
how to read this tab
guitar tuner
Tab Pro tools
  • play this tab
  • loop segment
  • change instrument
  • show fretboard
  • metronome
×
Best way to learn
"In Her Bedroom"
Autoscroll
slow
fast
+/-
esc
set tempo
stop
Tuning E,B,G,D,A,D
Song by Story of the Year
Tabbed by:L.E.W IV
< slide up
> slide down
= Let ring
0:00-0:52
PalmMute 16 strums        16 strums
E---------------------------------------|
B---------------------------------------|
G---------------------------------------|
D-4444444444444444-0000000000000000-----| Repeat 7 times
A-4444444444444444-0000000000000000-----|
D-4444444444444444-0000000000000000-----|

0:53-1:05
Playloud 16 strums
E------------------------------------------|
B------------------------------------------|
G---------------------9-----9------9-----9-|
D-4444444444444444-00-9-000-9---00-9-000-9-| Repeat
A-4444444444444444-00-7-000-7---00-7-000-7-|
D-4444444444444444-00---000-----00---000---|

1:06-1:31
PalmMute 16 strums        16 strums
E---------------------------------------|
B---------------------------------------|
G---------------------------------------|
D-4444444444444444-0000000000000000-----| Repeat 3 times
A-4444444444444444-0000000000000000-----|
D-4444444444444444-0000000000000000-----|

1:32-1:37
Playloud 16 strums
E------------------------------------------|
B------------------------------------------|
G---------------------9-----9------9-----9-|
D-4444444444444444-00-9-000-9---00-9-000-9-|
A-4444444444444444-00-7-000-7---00-7-000-7-|
D-4444444444444444-00---000-----00---000---|

1:38-1:44
Playloud 16 strums
E---------------------------------------|
B---------------------------------------|
G---------------------9-9<11-11>9-------|
D-4444444444444444-00-9-9<11-11>9-0-0-0-|
A-4444444444444444-00-7-7<9--9->7-0-0-0-|
D-4444444444444444-00-------------0-0-0-|

1:45-1:50
Playloud 12 strums   12 strums
E--------------------------------------|
B--------------------------------------|
G--------------9<11--------------------|
D-222222222222-9<11-000000000000-0-0-0-|
A-222222222222-7<9--000000000000-0-0-0-|
D-222222222222------000000000000-0-0-0-|

1:51-1:57
Playloud
E--------------------------------------|
B--------------------------------------|
G--------------9<11--------------6<7>6-|
D-222222222222-9<11-000000000000-6<7>6-|
A-222222222222-7<9--000000000000-4<5>4-|
D-222222222222------000000000000-------|

1:58-2:17
Playloud
E------------------------------------------------------|
B------------------------------------------------------|
G------9--------6<7>6------9--------9-------9--------9-|
D-7777-9-4-4444-6<7>6-0000-9--0-000-9--0000-9--0-000-9-| repeat
A-7777-7-4-4444-4<5>4-0000-7--0-000-7--0000-7--0-000-7-|
D-7777---4-4444-------0000----0-000----0000----0-000---|

2:17-2:27
Playloud
E----------------------------------|
B----------------------------------|
G------9--------6<7>6--------------|
D-7777-9-4-4444-6<7>6-0=========---|
A-7777-7-4-4444-4<5>4-0=========---|
D-7777---4-4444-------0=========---|

2:27-2:52
PalmMute 16 strums        16 strums
E---------------------------------------|
B---------------------------------------|
G---------------------------------------|
D-4444444444444444-0000000000000000-----|Repeat 3 times
A-4444444444444444-0000000000000000-----|
D-4444444444444444-0000000000000000-----|

2:53-6:00
Repeat from 0:53 to 2:52

I am positive that this is 100% right,I listened to the song about 50 times so I think I 
it.This song is kick ass,hope you enjoy it!
comments
We did not receive enough feedback on this tab! Please rate:
print report bad tab
1 2 3 4 5
1 comment total.
0 reply
kerryritter wrote on June 24 2007, 10:22 pm

good.. missing an interlude, and the lead parts in the verses

I want to post or [tab]
guest
You may want to rate the tab now too:
select rating
Please do not post tabs as comments. Select "correction" instead!