Oops, an error
Loading. Please wait.

In The Shadows Tab

version 3
version 3

Whole song

Interactive

670 views 1 this week
no commentswrite comment
1 2 3 4 5
2 more votes to show rating
add to favorites
launch autoscroll
font size
0
reset
how to read this tab
guitar tuner
Autoscroll
slow
fast
+/-
esc
set tempo
stop
Help us to improve Ultimate-Guitar.com Take our survey!
×
Song:In The Shadows
Album:Page Avenue
BY: STORY OF THE YEAR!!! (BESAT BAND EVER)
Tabbed By:Matt Johnston

This is the the tab for "in the shadows" by story of the year, this is one of their best songs!

D tuning

D,A,D,G,B,E

~ = Let Ring Out
x = Dead string it (do a chord but don't press down so it has no sound)
Intro
E|-3---------------------------7----------------|  These are those 2 chords
B|-3---------------------------7----------------|  played in the begining,
G|-0---------------------------0----------------|  I Think they have a weird
D|-0---------------------------0----------------|  Effect on it....
A|-3---------------------------7----------------|
D|----------------------------------------------|

Kick In....
E|---------------------------------------------|
B|---------------------------------------------|
G|---------------------------------------------|
D|-555xxxx555xx555xxxx555--0~------------------|
A|-333xxxx333xx333xxxx333--0~------------------|
D|-------------------------0~------------------|


Verse
E|--------------------------------------------|
B|--------------------------------------------|
G|--------------------------------------------|
D|-2---00---5---5---00------------------------|
A|-2---00---3---5---00------------------------|
D|-2---00-------5---00------------------------|
"We both take the, hardest punches and collect..."

Pre Chorus
E|--------------------------------------------|
B|--------------------------------------------|
G|--------------------------------------------|
D|-55555555-5555555-55555555-7777-------------|
A|-33333333-3333333-33333333-5555-------------|
D|--------------------------------------------|

Chorusx2
E|----------------------------------------------|
B|----------------------------------------------|
G|----------------------------------------------|
D|-22222222---55555555---55555555---55555555----|
A|-22222222---33333333---55555555---33333333----|
D|-22222222--------------55555555---------------|
"Whoa, in the shadows of our lives..."

Verse2
E|--------------------------------------------| A Bass Riff is Play
B|--------------------------------------------| Until the kick in Here..
G|--------------------------------------------|
D|--------------------------------------------|
A|--------------------------------------------|
D|--------------------------------------------|
"Useless...Still I'll pull, my lip down...."

Verse2 Kick In
E|--------------------------------------------|
B|--------------------------------------------|
G|--------------------------------------------|
D|-2---00---5---5---00------------------------|
A|-2---00---3---5---00------------------------|
D|-2---00-------5---00------------------------|
"Just to show you, how much my jaw is ..."

Pre Chorus
E|--------------------------------------------|
B|--------------------------------------------|
G|--------------------------------------------|
D|-55555555--555555--5555555---777777---------|
A|-33333333--333333--33333333--555555---------|
D|--------------------------------------------|

Chorus
E|---------------------------------------------|
B|---------------------------------------------|
G|---------------------------------------------|
D|-2222222---55555555---55555555---55555555----|
A|-2222222---33333333---55555555---33333333----|
D|-2222222--------------55555555---------------|
"Whoa, in the shadows of our lives..."

Bridge (Palm muted) (Ryans solo he does live)
E|--------------------------------------------| If u ever seen this live
B|-5------------------------------------------| u know Ryan does this solo,
G|--------------------------------------------| i watched it forvever and here
D|--------------------------------------------| it is......
A|--------------------------------------------|
D|--------------------------------------------|
Play this note till Dan ends the words Seem to never change~ and then u do this right at 
tip end of those words


x4
E|---3-0-2------------------------------------|
B|-55-----3-----------------------------------|
G|--------------------------------------------|
D|--------------------------------------------|
A|--------------------------------------------|
D|--------------------------------------------|
play this till about when dans kicks in again singing "theres a smile on.."


After Bridgex2 -This is played with no bass in the sound(Amp)so its dead...
E|--------------------------------------------|
B|--------------------------------------------|
G|--------------------------------------------|
D|-2---00---5---5---00------------------------|
A|-2---00---3---5---00------------------------|
D|-2---00-------5---00------------------------|

Bass kicked back in here
E|--------------------------------------------|
B|--------------------------------------------|
G|--------------------------------------------|
D|-2---00---5---5---00------------------------|
A|-2---00---3---5---00------------------------|
D|-2---00-------5---00------------------------|
"Ahhhhhh!!!!!!, With a closed fist"

*****Prechorusx1*****

Chorus[x3]
E|--------------------------------------------| This chorus is played with
B|--------------------------------------------| out the guitar but it kicks
G|--------------------------------------------| in a little and these are the
D|-22---00--5555555555555---------------------| chords....
A|-22---00--3333333333333---------------------|
D|-22---00------------------------------------|
"Whoa in the shadows of our lives *We*.."
Kick in those chords as soon as he says "We Can"...

Outro...
E|---------------------------------------------------------|
B|---------------------------------------------------------|
G|---------------------------------------------------------|
D|-5555--555--0~--2--00--5--5--00--2--00--5--5--00--22~----|
A|-3333--333--0~--2--00--3--5--00--2--00--3--5--00--22~----|
D|------------0~--2--00-----5--00--2--00-----5--00--22~----|

Well heres the tab its mostly right maby a few errors i hope you like it,
And keep tabbing story of the year because there the best band in the world!
Suggest correction
Give kudos to tab author, rate the tab!
1 2 3 4 5
comments
print report bad tab
guest
You may want to rate the tab now too:
select rating
Wanna post a correction for this tab? Suggest correction