Oops, an error
Loading. Please wait.

Is This My Fate He Asked Them Tab

version 4
version 4

Whole song

Interactive

3,062 views 1 this week
2 commentsread comments
1 2 3 4 5
excellent!
x 5
add to favorites
launch autoscroll
font size
0
reset
how to read this tab
guitar tuner
Autoscroll
slow
fast
+/-
esc
set tempo
stop
Help us to improve Ultimate-Guitar.com Take our survey!
×
Author
Difficulty
Tuning
intermediate
D# G# C# F# A# D#
"Is This My Fate" He Asked Them
Story Of The Year

Tuning: Eb, Ab, Db, Gb, Bb, eb.

/ = slide up
\ = slide down
. = palm mute
* = Let note ring

Hey guys this is my first tab, but i think it's pretty much accurate.

INTRO: (for the first 15 seconds it just fades in, but just play keep playing this chord)

eb|------------------|
Bb|------------------|
Gb|----9-------------|
Db|----7-------------|
Ab|----7-------------|
Eb|----0-------------|

eb|-------------------------------------------------------------|
Bb|-------------------------------------------------------------|
Gb|-------------------------------------------------7/6/5/4-----|
Db|-------------------------------------------------7/6/5/4-----|
Ab|---5h7---5h7---5h7-5h7---5h7---5h7-5h7---5h7-----5/4/3/2-----|
Eb|-0-----0-----0---------0-----0---------0-----00--------------| X3
    .     .     .         .     .         .     ..

eb|-------------------------------------------------------------|
Bb|-------------------------------------------------------------|
Gb|---------------------------------------4/5\4-----------------|
Db|----------------------------4h5p4------4/5\4-----------------|
Ab|----------------------------------5----2/3\2-----------------|
Eb|-0--000--000--000--000--00-----------------------------------|
    .  ...  ...  ...  ...  ..

eb|-------------------------------------------------------------|
Bb|-------------------------------------------------------------|
Gb|----------------------------------------------5/7------------|
Db|--------------4h5p4------4h5p4------4h5p4-----5/7------------|
Ab|--------------------5----------5----------5---3/5------------|
Eb|-000--000--00---------00---------00--------------------------|
    ...  ...  ..         ..         ..

eb|-------------------------------------------------------------|
Bb|-------------------------------------------------------------|
Gb|----------------------------------------------6/5/4----------|
Db|--------------4h5p4------4h5p4------4h5p4-----6/5/4----------|
Ab|--------------------5----------5----------5---4/3/2----------|
Eb|-000--000--00---------00---------00--------------------------|
    ...  ...  ..         ..         ..

1st VERSE:

eb|-------------------------------------------------------------|
Bb|-------------------------------------------------------------|
Gb|-------------------------------------------------7/6/5/4-----|
Db|-------------------------------------------------7/6/5/4-----|
Ab|---5h7---5h7---5h7-5h7---5h7---5h7-5h7---5h7-----5/4/3/2-----|
Eb|-0-----0-----0---------0-----0---------0-----00--------------| X3
    .     .     .         .     .         .     ..

CHORUS:

eb|-------------------------------------------------------------------|
Bb|-------------------------------------------------------------------|
Gb|-999999--121212121212--555555--777777------------------------------|
Db|-999999--121212121212--555555--777777--2------2------2--------2----|
Ab|-777777--101010101010--333333--555555--2------2------2--------2----|
Eb|---------------------------------------0-0000-0-0000-0-0000--0--00-|
                                            ....   ....   ....     ..

eb|-------------------------------------------------------------------|
Bb|-------------------------------------------------------------------|
Gb|-555555--777777--999999--121212121212--555555--777777--------------|
Db|-555555--777777--999999--121212121212--555555--777777---2------2---|
Ab|-333333--555555--777777--101010101010--333333--555555---2------2---|
Eb|--------------------------------------------------------0-0000-0---|
                                                             ....

eb|------------------------------------------------------------|
Bb|------------------------------------------------------------|
Gb|---------------------555555--777777----5--------------------|
Db|------2------2-------555555--777777----5--------2--2--2--2--|
Ab|------2------2-------333333--555555----3--------2--2--2--2--|
Eb|-0000-0-0000-0-0000-----------------------------0--0--0--0--|
    ....   ....   ....

2nd VERSE:

eb|----------------------------------------------------------------|
Bb|----------------------------------------------------------------|
Gb|----------------------------------------------------------------|
Db|----------------------------------------------------------------|
Ab|---5h7---------5h7---------5h7---------5h7---------5h7----------|
Eb|-0-----0-2-0-0-----0-2-0-0-----0-2-0-0-----0-2-0-0-----0-2-0-0--|
    .     . . . .     . . . .     . . . .     . . . .     . . . .

eb|------------------------------------------|
Bb|------------------------------------------|
Gb|----------------------------7/6/5/4-------|
Db|----------------------------7/6/5/4-------|
Ab|--5h7---------5h7-----------5/4/3/2-------|
Eb|------0-2-0-0-----0-2-0-0-----------------|
         . . . .     . . . .

eb|------------------------------------------------------------|
Bb|------------------------------------------------------------|
Gb|-------------------------------------------------7/6/5/4----|
Db|-------------------------------------------------7/6/5/4----|
Ab|---5h7---5h7---5h7-5h7---5h7---5h7-5h7---5h7-----5/4/3/2----|
Eb|-0-----0-----0---------0-----0---------0-----00-------------|
    .     .     .         .     .         .     ..

eb|------------------------------------------------------------------|
Bb|------------------------------------------------------------------|
Gb|-------------------------------------------------7/6/5/4----------|
Db|-------------------------------------------------7/6/5/4----------|
Ab|---5h7---5h7---5h7-5h7---5h7---5h7-5h7---5h7-----5/4/3/2----------|
Eb|-0-----0-----0---------0-----0---------0-----00----------000-000--|
    .     .     .         .     .         .     ..          ... ...

PLAY CHORUS:

BRIDGE: (This is the part I play, the 2nd guitar plays the same thing just on a lower scale)

eb|---------------------------------------------|
Bb|---------------------------------------------|
Gb|-9---11---7---12---11---9---11---12---14-----|
Db|---------------------------------------------|
Ab|---------------------------------------------|
Eb|---------------------------------------------|

(this is the bit where he shouts BURN!! a lot)

eb|------------------------------------------------------------|
Bb|------------------------------------------------------------|
Gb|---------------------------------------------------5---7----|
Db|---------------------------------------------------5---7----|
Ab|---------------------------------------------------3---5----|
Eb|-0--00--00--00--00--00--00--00--00--00--00--00--00---0------|
    .  ..  ..  ..  ..  ..  ..  ..  ..  ..  ..  ..  ..   .

     (play this part 6 times)           (then on last go play this)
eb|-----------------------------------|----------------------------|
Bb|-----------------------------------|----------------------------|
Gb|-----------------------------------|----9----9----9----9----7*--|
Db|-----------------------5--4-2------|----9----9----9----9----7*--|
Ab|---9h10-7h9-9h10-7h9---5--4-2------|----7----7----7----7----5*--|
Eb|-0---------------------3--2-0------|-00---00---00---00---00-----|
                                        ..   ..   ..   ..   ..

ORGASMIC SOLO RIFF:

eb|----------------------------------------------------------------|
Bb|----------------------------------------------------------------|
Gb|-----------------------------------------------------------4/7--|
Db|-----------------------------------------------------------4/7--|
Ab|---12p10p9h10---10p9p7h9--9p7p5h7---12p10p9h10---10p9p7h9--2/5--|
Eb|-0------------0-------------------0------------0----------------| X4

END ON: (just keep striking this chord on time with song)

eb|---------|
Bb|---------|
Gb|---9-----|
Db|---9-----|
Ab|---7-----|
Eb|---0-----|
Suggest correction
comments
print report bad tab
2 comments total.
+1 reply
SOTYBBA7X 10 wrote on January 25 2010, 10:06 am

this is almost perfect, just one or two tiny adjustments needed 5* though for your first tab!!

0 reply
SOTY20 71 wrote on March 20 2010, 09:28 pm

excellent tab dude. 5*
the only thing is i thought is was in drop tuning, not standard, but it can be played both ways.

guest
You may want to rate the tab now too:
select rating
Please do not post tabs as comments. Select "correction" instead!