Oops, an error
Loading. Please wait.

Just Close Your Eyes Tab

version 1
version 1

Whole song

Interactive

3,643 views 3 this week
no commentswrite comment
1 2 3 4 5
please rate
add to favorites
launch autoscroll
font size
0
reset
how to read this tab
guitar tuner
Tab Pro tools
  • play this tab
  • loop segment
  • change instrument
  • show fretboard
  • metronome
×
Best way to learn
"Just Close Your Eyes"
Autoscroll
slow
fast
+/-
esc
set tempo
stop
Difficulty
Tuning
novice
D A D G B E
Title:  just close your eyes
Artist: Story of the year
Tab by: jp_jordan06
Tuning: Drop D

*this is my first tab. Any suggestions or comment just email me. Please rate my tab.  thank you.



Intro:
e]---------------------------------------------------------------------------[
b]--4-0-6-0-7-0-6-0-9-0-7-0—6-0----------------------------------------------[
G]------------------------------------------------------------------(x2)-----[
D]-----------------------------------4----9--11------------------------------[
A]-----------------------------------2----9--11------------------------------[
D]----------------------------------------9--11------------------------------[

Intro(part2)
e]------------------------------------------[
b]-- ---------------------------------------[
G]--6-8-10-11-13-11-10--------9--6----------[
D]--x-x-x--x--x--x---x-(x4)---x--x-(x8)-----[
A]--4-6-8--9--11-9---8--------11-4----------[
D]------------------------------------------[

for the rhythm guitar in this part:   e]------------[
                          b]------------------------[
                          G]-9--6-------------------[
                          D]-x--x-------------------[
                          A]-11-4-------------------[
                          D]------------------------[

e]---------------------------------------------------[
b]--8 -11-6-------8--11-13---------------------------[
G]--x—-x--x-------x--x--x-----------------------(x2)-[
D]--6--9--4-------6--9--11---------------------------[
A]---------------------------------------------------[
D]---------------------------------------------------[




Verse:


Lead: part 1
e]----------------------------------------------------[
b]----------------------------------------------------[
G]----------------------------------------------------[
D]--0----9--11--11----------------------[ -----[first part
A]--0----9--11--11---(x4)-----------------------------[
D]--0----9--11--11------------------------------------[
Pm  ..   ..  ..  ..

rhythm
                 e]------------[
       b]----------------------[
       G]-9--6-----------------[
       D]-x--x-----------------[  ____- just  get the timing
       A]-11-4-----------------[
       D]----------------------[

Lead part 2
e]----------------------------------------------------------------------------[
b]--4-0-6-0-7-0-6-0-9-0-7-0—6-0-(x7)—5-0(x)—4-0(x8)---------------------------[
G]------------------------------------------------------------------(x2)------[
D]--------------------------------------------------11~-9~--------------------[
A]--------------------------------------------------11~-9~--------------------[
D]--------------------------------------------------11~-9~--------------------[

Chorus:
e]------------------------------------------[
b]-- ---------------------------------------[
G]-------------------------------------(x2)-[
D]------- -4----9--11-----------------------[
A]---------2----9--11—(x4)------------------[
D]--------------9--11-----------------------[

Then  after the chorus do this:
e]--------------------------------------[
b]--4-0-6-0-7-0-6-0-9-0-7-0—6-0-(x2)----[
G]--------------------------------------[
D]--------------------------------------[
A]--------------------------------------[
D]--------------------------------------[


Verse 2: same with verse 1

Chorus:
e]------------------------------------------[
b]-- ---------------------------------------[
G]------------------------------------------[
D]------- -4----9--11-----------------------[
A]---------2----9--11-----------------------[
D]--------------9--11-----------------------[



Then:
e]---------------|
b]-- ------------|
G]---------------|  ¬____continue before bridge
D]---9-----------|
A]---9-----------|
D]---9-----------|

Bridge:
e]------------------------------------------------------------------[
b]-------------------------------2/-7-6—-2-2/-7-6-(x8)--------------[
G]------------------------------------------------------------------[
D]------------------------------------------------------------------[
A]—6--6-9-8--8-11-9--9-12-11-(x1)-----------------------------------[
D]------------------------------------------------------------------[

e]-----------------------------------[
b]—5-0-4-0-(continue play)-----------[
G]-----------------------------------[
D]-----------------------------------[ ----im not sure about this
A]-----------------------------------[
D]-----------------------------------[


 last chorus:
e]---------------------------------------------------[
b]--8 -11-6-------8--11-13---------------------------[
G]--x—-x--x-------x--x--x-----------------------(x2)-[
D]--6--9--4-------6--9--11---------------------------[
A]---------------------------------------------------[
D]---------------------------------------------------[

 1st part:                                                         2nd part:
e---------------------------|------------------------[
b]-- -----------------------|------------------------[
G]--6-8-10-11-13-11-10------|---9--4-----------------[
D]--x-x-x--x--x--x---x-(x4)-|---x--x-(continue)------[
A]--4-6-8--9--11-9---8------|---11-4-----------------[
D]--------------------------|------------------------[



Ryhtm in last part:  (when lead continue to play the 2nd part)
e]---------------------------------------------------[
b]--8 -11-6-------8--11-13---------------------------[
G]--x—-x--x-------x--x--x-----------------------(x2)-[
D]--6--9--4-------6--9--11---------------------------[
A]---------------------------------------------------[
D]---------------------------------------------------[
comments
We did not receive enough feedback on this tab! Please rate:
print report bad tab
1 2 3 4 5
I want to post or [tab]
guest
You may want to rate the tab now too:
select rating
Please do not post tabs as comments. Select "correction" instead!