Oops, an error
Loading. Please wait.

Until The Day I Die Tab

version 2
version 2
113,315 views 36 this week
48 commentsread comments
1 2 3 4 5
x 54
add to favorites
launch autoscroll
font size
0
reset
how to read this tab
guitar tuner
backing track
0:00
0:00
×
Best way to learn
"Until The Day I Die"
Autoscroll
slow
fast
+/-
esc
set tempo
stop
Author
Here's a new tab for Story Of The Year - Until The Day I Die (The pre-album ver.)
If there are any corrections, please let me know.  Input is greatly appreciated!
Word of advice: Play it loud and just go straight down for either guitar 1 or 2.
Enjoi their new album out 9/16/03!


     Intro (Distortion)
e|   |---------------------------------------------------|
B|   |---------------------------------------------------|
G|x2 |---------------14--------------------14------------|  #1  Palm Muted    Here
D|   |------12----12----12----12--12----12----12----12---|
A|   |---14----14----------14--------14----------14------|
E|   |---------------------------------------------------|

   On #2 and #3, slide down on the first note but then leave it out on the repeat.

     Guitar 1 : Here it helps to use all downstrokes and some sort of muting technique a little bit.
e|   |------------------------------------------------------------------------------------------|
B|   |---15--15-15-15--15-15-15---14-14-14--14-14-14--------------------------------------------|
G|x2 |---14--14-14-14--14-14-14---14-14-14--14-14-14---14-14-14--14-14-14--14-14-14--14-14-14---|  #2
D|   |---12--12-12-12--12-12-12---12-12-12--12-12-12---12-12-12--12-12-12--12-12-12--12-12-12---|
A|   |-------------------------------------------------12-12-12--12-12-12--12-12-12--12-12-12---|
E|   |------------------------------------------------------------------------------------------|

     Guitar 2
e|   |-----------------------------------------------------------|
B|   |-----------------------------------------------------------|
G|x2 |---7---4-4-4--4-4-4--4-4--6--7---------------------2-2-2---|  #3
D|   |---7---4-4-4--4-4-4--4-4--6--7--5-5-5--5-5-5--5-5--2-2-2---|
A|   |---5---2-2-2--2-2-2--2-2--4--5--5-5-5--5-5-5--5-5--0-0-0---|
E|   |--------------------------------3-3-3--3-3-3--3-3----------|

     Guitar 1 (palm muted again)
e|   |----------------------------------------------------------------------------------------------|
B|   |----------------------------------------------------------------------------------------------|
G|x3 |-------------14--------------------14-----------------------14--------------------16----------| #4
D|   |----12----12----12----12--12----12----12----12-----12----12----12----12--14-11-14----14-11-14-|
A|   |-14----14----------14--------14----------14-----14----14----------14--------------------------|
E|   |----------------------------------------------------------------------------------------------|
  
     Out into chorus.
e|   |------------------------------------------------------------------------------------------------|
B|   |------------------------------------------------------------------------------------------------|
G|x1 |-------------14--------------------14-----------------------14-14-14-14-------------14-14-14-14-| #5
D|   |----12----12----12----12--12----12----12----12-----12----12----------------12----12-------------|
A|   |-14----14----------14--------14----------14-----14----14----------------14----14----------------|
E|   |------------------------------------------------------------------------------------------------|

     Guitar 2
     Let these two ring.
e|   |---------|
B|   |---------|
G|x1 |---7-----|  #6
D|   |-----7---|
A|   |---------|
E|   |---------|

     Palm muted.
e|   |------------------------------------------------------------------------|
B|   |------------------------------------------------------------------------|
G|x1 |---4-4-4-4-4-4-4-4-------------------7-7-7-7-7-7-7-7--2-2-2-2-2-2-2-2---|  #7
D|   |---4-2-2-2-2-2-2-2--5-5-5-5-5-5-5-5--7-7-7-7-7-7-7-7--2-2-2-2-2-2-2-2---|
A|   |---2-2-2-2-2-2-2-2--5-5-5-5-5-5-5-5--5-5-5-5-5-5-5-5--0-0-0-0-0-0-0-0---|
E|   |--------------------3-3-3-3-3-3-3-3-------------------------------------|


e|   |---------------------------------------------------------------------------|
B|   |---------------------------------------------------------------------------|
G|x1 |---4-4-4-4-4-4-4-4----------------------4-4-4-4-4-4-4-4--2-2-2-2-2-2-2-2---|  #8
D|   |---4-2-2-2-2-2-2-2--5-5-5-5-5-5-5-5-----2-2-2-2-2-2-2-2--2-2-2-2-2-2-2-2---|
A|   |---2-2-2-2-2-2-2-2--5-5-5-5-5-5-5-5-----2-2-2-2-2-2-2-2--0-0-0-0-0-0-0-0---|
E|   |--------------------3-3-3-3-3-3-3-3----------------------------------------|
                                            ^Open distortion here.

     Guitar 1(after a short pause)
e|   |-----------------------------------------------------------------------|
B|   |---------------------------------------15-15H17L15-15H17L15-15H17L15---|
G|x1 |---14-14-14-14---14-14-14-14-------------------------------------------|  #9
D|   |-----------------------------12----12----------------------------------|
A|   |--------------------------------14-------------------------------------|
E|   |-----------------------------------------------------------------------|

e|   |--------------------------------------------------------------------------------------------|
B|   |--------------------------------------------------------------------------------------------|
G|x1 |-14-14-14-14-----------14-14-14-14-----------14-14-14-14------------14-14-14-14-14-14-14-14-| #10
D|   |-------------12-11-----------------12-11-----------------12-11------------------------------|
A|   |-------------------12--------------------12--------------------12---------------------------|
E|   |--------------------------------------------------------------------------------------------|
                                                                      ^tiny pause between these
   Guitar 2                                                                   two parts
   |-----------------------------------|
   |-----------------------------------|
x3 |----------2-2-2--4-4-4-4-4-4-4-4---|  #11
   |---5-5-5--2-2-2--4-4-4-4-4-4-4-4---|
   |---5-5-5--0-0-0--2-2-2-2-2-2-2-2---|
   |---3-3-3---------------------------|

e|   |------------------|
B|   |------------------|
G|x1 |----------2-2-2---|  #12
D|   |---5-5-5--2-2-2---|
A|   |---5-5-5--0-0-0---|
E|   |---3-3-3----------|

   Guitar 1
e|   |----------------------------------------------------------------------------------------------|
B|   |----------------------------------------------------------------------------------------------|
G|x3 |-------------14--------------------14-----------------------14--------------------16----------| #4
D|   |----12----12----12----12--12----12----12----12-----12----12----12----12--14-11-14----14-11-14-|
A|   |-14----14----------14--------14----------14-----14----14----------14--------------------------|
E|   |----------------------------------------------------------------------------------------------|
 
e|   |------------------------------------------------------------------------------------------------|
B|   |------------------------------------------------------------------------------------------------|
G|x1 |-------------14--------------------14-----------------------14-14-14-14-------------14-14-14-14-| #5
D|   |----12----12----12----12--12----12----12----12-----12----12----------------12----12-------------|
A|   |-14----14----------14--------14----------14-----14----14----------------14----14----------------|
E|   |------------------------------------------------------------------------------------------------|

   Guitar 2
   
     (Palm muted)
e|   |------------------------------------------------------------------------|
B|   |------------------------------------------------------------------------|
G|x2 |---4-4-4-4-4-4-4-4-------------------7-7-7-7-7-7-7-7--2-2-2-2-2-2-2-2---|  #13
D|   |---4-2-2-2-2-2-2-2--5-5-5-5-5-5-5-5--7-7-7-7-7-7-7-7--2-2-2-2-2-2-2-2---|
A|   |---2-2-2-2-2-2-2-2--5-5-5-5-5-5-5-5--5-5-5-5-5-5-5-5--0-0-0-0-0-0-0-0---|
E|   |--------------------3-3-3-3-3-3-3-3-------------------------------------|

     Accent each third note and let ring just a little bit.
e|   |-----------------------------------------------------------|
B|   |-----------------------------------------------------------|
G|x1 |---4-4-4-4-4-4-----------------7-7-7-7-7-7---2-2-2-2-2-2---|  #14
D|   |---4-2-2-2-2-2---5-5-5-5-5-5---7-7-7-7-7-7---2-2-2-2-2-2---|
A|   |---2-2-2-2-2-2---5-5-5-5-5-5---5-5-5-5-5-5---0-0-0-0-0-0---|
E|   |-----------------3-3-3-3-3-3-------------------------------|

e|   |---------------------------------------------------------------------------|
B|   |---------------------------------------------------------------------------|
G|x1 |---4-4-4-4-4-4-4-4----------------------4-4-4-4-4-4-4-4--2-2-2-2-2-2-2-2---|  #8
D|   |---4-2-2-2-2-2-2-2--5-5-5-5-5-5-5-5-----2-2-2-2-2-2-2-2--2-2-2-2-2-2-2-2---|
A|   |---2-2-2-2-2-2-2-2--5-5-5-5-5-5-5-5-----2-2-2-2-2-2-2-2--0-0-0-0-0-0-0-0---|
E|   |--------------------3-3-3-3-3-3-3-3----------------------------------------|

   Guitar 1
e|   |-----------------------------------------------------------------------|
B|   |---------------------------------------15-15H17L15-15H17L15-15H17L15---|
G|x1 |---14-14-14-14---14-14-14-14-------------------------------------------|  #9
D|   |-----------------------------12----12----------------------------------|
A|   |--------------------------------14-------------------------------------|
E|   |-----------------------------------------------------------------------|

e|   |--------------------------------------------------------------------------------------------|
B|   |--------------------------------------------------------------------------------------------|
G|x1 |-14-14-14-14-----------14-14-14-14-----------14-14-14-14------------14-14-14-14-14-14-14-14-| #10
D|   |-------------12-11-----------------12-11-----------------12-11------------------------------|
A|   |-------------------12--------------------12--------------------12---------------------------|
E|   |--------------------------------------------------------------------------------------------|

 This one part below seems to be a little more busy.
e|----------------------------|
B|-----------------------10---|
G|-----------------11-12------|  #15
D|------12-11-9-12------------|
A|---10-----------------------|
E|----------------------------|

     Guitar 2
e|   |-----------------------------------|
B|   |-----------------------------------|
G|x3 |----------2-2-2--4-4-4-4-4-4-4-4---|  #11
D|   |---5-5-5--2-2-2--4-4-4-4-4-4-4-4---|
A|   |---5-5-5--0-0-0--2-2-2-2-2-2-2-2---|
E|   |---3-3-3---------------------------|

e|   |------------------------------------------|
B|   |------------------------------------------|
G|x1 |----------2-2-2---4-4--2-2----------------|  #16
D|   |---5-5-5--2-2-2---4-4--2-2--5-5-5-5-5-5---|
A|   |---5-5-5--0-0-0---2-2--0-0--5-5-5-5-5-5---|
E|   |---3-3-3--------------------3-3-3-3-3-3---|

   
e|   |---------------------------|
B|   |---------------------------|
G|x3 |---4-4--2-2----------------|  #17
D|   |---4-4--2-2--5-5-5-5-5-5---| 
A|   |---2-2--0-0--5-5-5-5-5-5---|
E|   |-------------3-3-3-3-3-3---|

e|   |----------------------|
B|   |------------------3---|
G|x1 |---4-4--2-2-------4---|  #18
D|   |---4-4--2-2--5-5------|
A|   |---2-2--0-0--5-5------|
E|   |-------------3-3------|
                      ^Let this note ring.

     Guitar 1 (very little difference between the two)
e|   |-------------------------------------------------------------------------------------------------|
B|   |-------------------------------------------------------------------------------------------------|
G|x5 |-------------------------------------------------------------------------------------------------| #19
D|   |-------------12-------12-----------12-------12--------------12-------12-----------11H12L11----11-|
A|   |-14-14-14-14----14-14-----12-12-12----12-12-----10-10-10-10----10-10-----12-12-12----------12----|
E|   |-------------------------------------------------------------------------------------------------|

e|   |-------------------------------------------------------------------------------|
B|   |-------------------------------------------------------------------------------|
G|x1 |-------------------------------------------------------------------------------|  #20
D|   |---------------12-------12-----------12-------12--------------12---------------|
A|   |---14-14-14-14----14-14-----12-12-12----12-12-----10-10-10-10----10-10-10-12---|
E|   |-------------------------------------------------------------------------------|

   Guitar 2
     Let these two ring.
e|   |---------|
B|   |---------|
G|x1 |---7-----|  #6
D|   |-----7---|
A|   |---------|
E|   |---------|

     Guitar 2
e|   |-----------------------------------------------------------|
B|   |-----------------------------------------------------------|
G|x2 |---7---4-4-4--4-4-4--4-4--6--7---------------------2-2-2---|  #3
D|   |---7---4-4-4--4-4-4--4-4--6--7--5-5-5--5-5-5--5-5--2-2-2---|
A|   |---5---2-2-2--2-2-2--2-2--4--5--5-5-5--5-5-5--5-5--0-0-0---|
E|   |--------------------------------3-3-3--3-3-3--3-3----------|

e|   |----------------------|
B|   |------------------3---|
G|x1 |---4-4--2-2-------4---|  #18
D|   |---4-4--2-2--5-5------|
A|   |---2-2--0-0--5-5------|
E|   |-------------3-3------|
                      ^Let this note ring.

   Guitar 1

     Guitar 1 : Here it helps to use all downstrokes and some sort of muting technique a little bit.
e|   |------------------------------------------------------------------------------------------|
B|   |---15--15-15-15--15-15-15---14-14-14--14-14-14--------------------------------------------|
G|x2 |---14--14-14-14--14-14-14---14-14-14--14-14-14---14-14-14--14-14-14--14-14-14--14-14-14---|  #2
D|   |---12--12-12-12--12-12-12---12-12-12--12-12-12---12-12-12--12-12-12--12-12-12--12-12-12---|
A|   |-------------------------------------------------12-12-12--12-12-12--12-12-12--12-12-12---|
E|   |------------------------------------------------------------------------------------------|

e|-----------------------------|
B|-----------------------------|
G|---------------12-11---------|  #21
D|---------12-14-------14-12---|
A|---12-14---------------------|
E|-----------------------------|

Fin.

************************************

| x  Dead note
| H  Hammer on

************************************
Suggest correction
comments
print report bad tab
48 comments total. Showing first comments.
+1 reply
kostcoguy 10 Jan 10, 2004 07:00 PM

Very good tab man.

+2 reply
groovieghouli89 195 Jan 25, 2004 07:00 PM

ya, its a good tab but you laid it out just a bit confusing

+3 reply
hardcorechick15 10 Feb 01, 2004 07:00 PM

quick question- wats the tuning for that?

guest
You may want to rate the tab now too:
select rating
Wanna post a correction for this tab? Suggest correction