Oops, an error
Loading. Please wait.

Until The Day I Die bass

version 4
version 4
263 views 1 this week
no commentswrite comment
1 2 3 4 5
3 more votes to show rating
add to favorites
×
Save as Personal and add changes to this tab that will be seen only by you. Learn more ›
×
You can save this tab as Personal to edit and correct it or add notes. All changes will be seen only by you. Learn more »
launch autoscroll
font size
0
reset
guitar tuner
backing track
0:00
0:00
edit
Autoscroll
slow
fast
+/-
esc
set tempo
stop
0:26
F|-------------------------------------------------------------------|
C|o-----------------------------------------------------------------o|
G|o-4-4-4---4-4-4-----4-4---7-7-7-7-0-0-0---0-0-0-----0-0---2-2-2-2-o|
C|-------------------------------------------------------------------|

0:36
F|-----------------------------------------------------------------|
C|---------------------------------------------------9-9-9-9-9-9-9-|
G|-4-4-4-4-4-4-4-4---0-0-0-0-0-0-0-7-7-7-7-7-7-7-7-----------------|
C|-----------------------------------------------------------------|

0:41
F|------------------------------------------------------------------|
C|------------------------------------------------------------------|
G|-4-4-4-4-4-4-4-4---0-0-0-0-0-0-0-7-7-7-7-7-7-7-7---2-2-2-2---14-\-|
C|------------------------------------------------------------------|

0:46
F|-----------------------------------------------------------------|
C|---------------------------------------------------9-9-9-9-9-9-9-|
G|-4-4-4-4-4-4-4-4---0-0-0-0-0-0-0-7-7-7-7-7-7-7-7-----------------|
C|-----------------------------------------------------------------|

F|-----------------------------------------------------------------|
C|-----------------------------------------------------------------|
G|-4-4-4-4-4-4-4-4---0-0-0-0-0-0-0-------------------2-2-2-2-2-2-2-|
C|---------------------------------2-2-2-2-2-2-2-2-----------------|

Rest

1:00
F|-------------------------------------------------------------------|
C|o-----------------------------------------------------------------o|
G|o-4-4-4-4-4-4-4-4---0-0-0-0-0-0-0-------------------2-2-2-2-2-2-2-o|
C|----------------------------------2-2-2-2-2-2-2-2------------------|

1:10
F|-----------------------------------------------------------------|
C|-----------------------------------------------------------------|
G|-0-0-0-----------2-2-2---------2-4-------------------------------|
C|-----------------------------------------------------------------|

F|-----------------------------------------------------------------|
C|-----------------------------------------------------------------|
G|-0-0-0-----------2-2-2---------2-4---------------------4-7-\-\-\-|
C|-----------------------------------------------------------------|


F|-----------------------------------------------------------------|
C|-----------------------------------------------------------------|
G|-0-0-0-----------2-2-2---------2-4-----------------------4-------|
C|-----------------------------------------------------------------|

1:26
F|-----------------------------------------------------------------|
C|-----------------------------------------------------------------|
G|-0-0-0-----------2-2-2-----------4-------------------------------|
C|-----------------------------------------------------------------|
   1 2 3 4 1 2 3 4 1 2 3 4 1 2 3 4 1 2 3 4 1 2 3 4 1 2 3 4 1 2 3 4

F|-----------------------------------|
C|-----------------------------------|
G|-------------------------4/16\2/12-|
C|-----------------------------------|

1:33
F|-------------------------------------------------------------------|
C|o-----------------------------------------------------------------o|
G|o-4-4-4-4-4-4-4-4---0-0-0-0-0-0-0-7-7-7-7-7-7-7-7---2-2-2-2-2-2-2-o|
C|-------------------------------------------------------------------|

1:44
F|-----------------------------------------------------------------|
C|-----------------------------------------------------------------|
G|-4-4-4-4-------4-0---0---------------------------2---2-2---------|
C|---------------------------------2---2---------2-----------------|

F|-----------------------------------------------------------------|
C|-----------------------------------------------------------------|
G|-4-4-4-4-4-4-4-4---0-0-0-0-0-0-0-------------------2-2-2-2-2-2-2-|
C|---------------------------------2-2-2-2-2-2-2-2-----------------|

1:55
F|-------------------------------------|
C|-------------------------------------|
G|-2-2-2-2-0-------0---2--/14-14-14-14-|
C|-------------2-----------------------|

1:57
F|-----------------------------------------------------------------|
C|-----------------------------------------------------------------|
G|-0-0-0-----------2-2-2---------2-4-----------------------4-------|
C|-----------------------------------------------------------------|

F|-----------------------------------------------------------------|
C|-----------------------------------------------------------------|
G|-0-0-0-----------2-2-2---------2-4---------------------4-7-\-\-\-|
C|-----------------------------------------------------------------|


F|-----------------------------------------------------------------|
C|-----------------------------------------------------------------|
G|-0-0-0-----------2-2-2---------2-4-----------------------4-------|
C|-----------------------------------------------------------------|

2:13
F|-----------------------------------------------------------------|
C|-----------------------------------------------------------------|
G|-0-0-0-----------2-2-2---------2-4-4---2-2---0-0---2-4-2-4-2-4-2-|
C|-----------------------------------------------------------------|
   1 2 3 4 1 2 3 4 1 2 3 4 1 2 3 4 1 2 3 4 1 2 3 4 1 2 3 4 1 2 3 4

F|-----------------------------------------------------------------|
C|-----------------------------------------------------------------|
G|-4-4---2-2---0-0---2-4-2-4-2-4-2-4-4---2-2---0-0---2-4-2-4-2-4-2-|
C|-----------------------------------------------------------------|
   1 2 3 4 1 2 3 4 1 2 3 4 1 2 3 4 1 2 3 4 1 2 3 4 1 2 3 4 1 2 3 4

F|-----------------------------------------------------------------|
C|-----------------------------------------------------------------|
G|-4-4---2-2---0-0---2-4-2-4-2-4-2-4-------------------------------|
C|-----------------------------------------------------------------|
   1 2 3 4 1 2 3 4 1 2 3 4 1 2 3 4 1 2 3 4 1 2 3 4 1 2 3 4 1 2 3 4

2:31
F|-----------------------------------------------------------------|
C|-----------------------------------------------------------------|
G|-4-4-4-4-4-4-4-4-2-2-2-2-2-2-2-2-0-0-0-0-0-0-0-0-0-0-0-0-0-0-0-0-|
C|-----------------------------------------------------------------|

F|--------------------------------------------------------------------|
C|--------------------------------------------------------------------|
G|-4-4-4-4-4-4-4-4-2-2-2-2-2-2-2-2-0-0-0-0-0-0-0-0-4h7-7-7-9h11-11-11-|
C|--------------------------------------------------------------------|
2:41
F|-----------------------------------------------------------------|
C|-----------------------------------------------------------------|
G|-4---4-----------2---2-----------0---0---------0-0---0-----------|
C|-----------------------------------------------------------------|
   1 2 3 4 1 2 3 4 1 2 3 4 1 2 3 4 1 2 3 4 1 2 3 4 1 2 3 4 1 2 3 4

F|-----------------------------------------------------------------|
C|-----------------------------------------------------------------|
G|-4---4-----------2---2-----------0-----0-----0-----0-----0---0---|
C|-----------------------------------------------------------------|
   1 2 3 4 1 2 3 4 1 2 3 4 1 2 3 4 1 2 3 4 5 6 1 2 3 4 5 6 1 2 3 4 

F|-----------------------------------------------------------------|
C|-----------------------------------------------------------------|
G|-2-----2----/14----14----14--14--12\-----------------------------|
C|-----------------------------------------------------------------|
   1 2 3 4 5 6 1 2 3 4 5 6 1 2 3 4 1 2 3 4 1 2 3 4 1 2 3 4 1 2 3 4

Rest 

3:05
F|-----------------------------------------------------------------|
C|-----------------------------------------------------------------|
G|-0-0-0-----------2-2-2-----------4-4-4-4-4-4-4-4-4-4-4-4-4-4-4-4-|
C|-----------------------------------------------------------------|

F|-----------------------------------------------------------------|
C|-----------------------------------------------------------------|
G|-0-0-0-----------2-2-2---------2-4-----4-4-----4-4-----4-4-------|
C|-----------------------------------------------------------------|

3:15
F|---------------------------------------------------------------------|
C|---------------------------------------------------------------------|
G|-0-0-0-----------2-2-2---------2-4-----4-11-11-11-11-4-4-4-4-4-4-4-4-|
C|---------------------------------------------------------------------|

F|-----------------------------------------------------------------------------------|
C|-----------------------------------------------------------------------------------|
G|-0-0-0-----------2-2-2----------11/16-16-16-16-16-16-16-16-16-16-16-16-16-16-16-16-|
C|-----------------------------------------------------------------------------------|

3:26
F|-----------------------------------------------------------------------------------------------|
C|-----------------------------------------------------------------------------------------------|
G|-0-0---0-0-0---0-2-2---2-2-2---2-4-4---4-4-4---4-4-4---4-4-4---4-0-0---0-0-0---0-2-2---2-2-2---|
C|-----------------------------------------------------------------------------------------------|

3:33
F|-------------------------------------------------------------------|-------------------|
C|o-----------------------------------------------------------------o|-------------------|
G|o-4-4-4---4-4-4-----4-4---7-7-7-7-0-0-0---0-0-0-----0-0---2-2-2-2-o|-4-4---2-2---0-0---|
C|-------------------------------------------------------------------|-------------------|
Tabbed by Dave Vucko

            
            
Suggest correction
Creating personal tab
Creating personal tab
You can edit any tab online and save it as your Personal.

You can edit, replace or remove any tab part or add personal notes – all changes will be seen only by you.

Personal tabs can be accessed anytime from any device, even offline.
Learn more »
Give kudos to tab author, rate the tab!
1 2 3 4 5
comments
print report bad tab
guest
You may want to rate the tab now too:
select rating
Wanna post a correction for this tab? Suggest correction