Oops, an error
Loading. Please wait.

History Tab

61 views 39 this week
no commentswrite comment
1 2 3 4 5
3 more votes to show rating
add to favorites
launch autoscroll
font size
0
reset
how to read this tab
guitar tuner
Autoscroll
slow
fast
+/-
esc
set tempo
stop
Help us to improve Ultimate-Guitar.com Take our survey!
×
Author
Difficulty
intermediate
About this tab version
This tab is the only one for the song (so far) and was made completely by listening to the audio. This tab also includes the chords, lyrics, and solo parts for the song. Was this info helpful? Yes No
[Intro]
[Guitar 1]
E|--------10-8-7------|
B|--8---8--------10---|
G|--0-7---------------| (x2)
D|--------------------|
A|--------------------|
E|--------------------| 

(Guitar 2)
G

[Verse 1]
Em              C
You can call me crazy
G          D
But when I close my eyes
Em           C
I can see it clearly
G             D
I can see the shinning lights
          Em                    C
I'm gonna take these dreams and make them real
          G                   D
I’m gonna tell the world just how I feel
          Em                   C
I’m gonna climb these walls or tear them down
          G                D
I’m gonna bury these fears in the ground

[Chorus]
Em 
I’m gonna soar
C
I'm gonna fly
G              D
I'm gonna show what I'm made of
Em
I'm gonna push
C
Not gonna hide
G                       D
Because there's nothing I'm afraid of
Em             C
I'm gonna make history     
G        D                 
History, history       
Em             C
I'm gonna make history     
G        D                 
History, history      

(Guitar 1)
E|--------10-8-7------|
B|--8---8--------10---|
G|--0-7---------------|
D|--------------------|
A|--------------------|
E|--------------------|
                        
(Guitar 2)
G

[Verse 2]
Em              C
You can call me crazy
G           D
Or say I've lost my mind
Em               C
I won't let that phase me
G            D
I won't give up this time
Em                   C
I wanna rise up high above the rest
               G                     D
Because I just won’t just settle for second best
          Em                  C
And if it breaks my bones and beats me down
          G                D
I’m gonna get back off the ground

[Chorus]
Em 
I’m gonna soar
C
I'm gonna fly
G              D
I'm gonna show what I'm made of
Em
I'm gonna push
C
Not gonna hide
G                       D
Because there's nothing I'm afraid of
Em             C
I'm gonna make history     
G        D                 
History, history       
Em             C
I'm gonna make history     
G        D                 
History, history     

[Bridge]
C            D             Am        G
I'll give up everything to follow my heart
C           D        Am      G
I won’t let anything tear me apart
C                       D
I'll give up everything (everything)

[Solo]
(Guitar 1)
E|-12----12-------------------------------------------------------------------------------------------------|
B|----------15-13-12-------------12h13p12-------------------12----------12h13h15-13-12----------------------|
G|----12-------------14-14-12h14----------12----12-11h12h14----11h12h14----------------14p12h14\11h12-------|
D|-------------------------------------------14-------------------------------------------------------14----|
A|----------------------------------------------------------------------------------------------------------|
E|----------------------------------------------------------------------------------------------------------|

(Guitar 2)
Em C G D

[Chorus]
Em 
I’m gonna soar
C
I'm gonna fly
G              D
I'm gonna show what I'm made of
Em
I'm gonna push
C
Not gonna hide
G                       D
Because there's nothing I'm afraid of
Em             C
I'm gonna make history     
G        D                 
History, history       
Em             C
I'm gonna make history     
G        D                 
History, history 

[Outro]
(Guitar 1)
E|-12----12-------------------------------------------------------------|
B|----------15-13-12-------12-13-12----------12-------12----------------|
G|----12-------------14-14----------12----12----14-12----14-12p11h12----|
D|-------------------------------------14----------------------------14-|
A|----------------------------------------------------------------------|
E|----------------------------------------------------------------------|

(Guitar 2)
Em C G D

[Ending]
Em
Suggest correction
Give kudos to tab author, rate the tab!
1 2 3 4 5
comments
print report bad tab
guest
You may want to rate the tab now too:
select rating
Wanna post a correction for this tab? Suggest correction