Oops, an error
Loading. Please wait.

Miracle Tab

515 views 1 this week
no commentswrite comment
1 2 3 4 5
accurate
x 1
add to favorites
launch autoscroll
font size
0
reset
how to read this tab
guitar tuner
Tab Pro tools
  • play this tab
  • loop segment
  • change instrument
  • show fretboard
  • metronome
Autoscroll
slow
fast
+/-
esc
set tempo
stop
Contributor
Song      : Miracle
Band      : Story Side B 
Tabbed by : Ruth Quisayang
Tuning    : Flat Tuning
Legend    : |x = muted note|~ = vibrato|/ = slide up|\ = slide down|
Gtr 1
eb----------------------------------------------------------------------|
bb----------------------------------------------------------------------|
gb-xx-7-----------------------------------------------------------------|------
db-xx-7-----------xx-7-----------xx-9-----------xx-5---------xx-5--xx-4-|      |
ab-xx-5-----------xx-7-----------xx-9-----------xx-5---------xx-5--xx-5-|      |
Eb----------------xx-7-----------xx-9-----------xx-5---------xx-5--xx-4-|      |
     |----------------------------------------------|                          |
                                                                               |
Gtr 2                                                                          |
eb-----------------------------------------------------------------------|     |
bb-----------------------------------------------------------------------|     |
gb-xx-77-66-77-9~-xx-77-66-77-9~-xx-77-66-77-9~-xx-7~--------xx-12-xx-11~|-----| === 2x               
db-xx-xx-xx-xx-x~-xx-xx-xx-xx-x~-xx-xx-xx-xx-x~-xx-x~--------xx--x-xx--x~|     |
ab-xx-55-44-55-7~-xx-55-44-55-7~-xx-55-44-55-7~-xx-5~--------xx-10-xx--9~|     |
Eb-----------------------------------------------------------------------|     |
                                                                               |
Gtr 3                                                                          |
eb----------------------------------------------------------------------|      |
bb-/17~~~~~~~~~~----\9~-10~-12~--/19~~~~~~~~~~~~~~~-\15~~---------------|      |
gb----------------------------------------------------------------------|      |
db----------------------------------------------------------------------|------
ab----------------------------------------------------------------------|
Eb----------------------------------------------------------------------|
comments
We did not receive enough feedback on this tab! Please rate:
print report bad tab
1 2 3 4 5
I want to post or [tab]
guest
You may want to rate the tab now too:
select rating
Please do not post tabs as comments. Select "correction" instead!