Oops, an error
Loading. Please wait.

Brand New Day Tab

291 views 1 this week
no commentswrite comment
1 2 3 4 5
3 more votes to show rating
add to favorites
launch autoscroll
font size
0
reset
how to read this tab
guitar tuner
Autoscroll
slow
fast
+/-
esc
set tempo
stop
Help us to improve Ultimate-Guitar.com Take our survey!
×
Author
Difficulty
novice
-------------------------------------------------------------------------------
1.              Brand New Day - Straight Outta Junior High
-------------------------------------------------------------------------------
Tabbed by: Jason Mayer
Email: rockzep@alltel.net

Tuning: Standard

This is one my favorite SOJH songs. And I always hoped someone would tab it but I could
find it so I decided I’d give it a try. It may not be perfect but it sounds about right
me. It’s for sure a hell of a lot better than the intro that’s already on here. I’m not
sure what he was listening to.  Anyways this is my shot at Brand New Day from the
and only SOJH, if you have any comments or corrections let me know and I’ll change them.

Lead Riff 4X
                                *
e|11--11h12p11–6-6h7p6-4-4h5p4-6-6h7p6----|
B|--12----------7-------5-------7---------|
G|----------------------------------------|
D|----------------------------------------|
A|----------------------------------------|
E|----------------------------------------|


Rhythm guitar plays this at the end of the lead riff the first time around *

   F#    B
   p.m.
e|---------|
B|---------|
G|-------4-|
D|-444---4-|
A|-444—––2-|
E|-222-----|

Rhythm Guitar-During intro and verse. Play this twice over the lead during the intro
the lead is played twice by itself.  Strum the part with all zeros as your moving your hand
to the B chord.

   B   F# E   F#
e|-----------------|
B|-----------------|
G|-444-------------|
D|-444-44-222-440--|
A|-222-44-222-440--|
E|-----22-000-220--|

Chorus

   E        F#       G#       B        E        F#
e|------------------------------------------------|
B|------------------------------------------------|
G|------------------------------------------------|
D|-22222222-44444444-66666666-99999999-22222222-4-|
A|-22222222-44444444-66666666-99999999-22222222-4-|
E|-00000000-22222222-44444444-77777777-00000000-2-|

Repeat Intro

Lead Riff  2X

e|11--11h12p11–6-6h7p6-4-4h5p4-6-6h7p6----|
B|--12----------7-------5-------7---------|
G|----------------------------------------|
D|----------------------------------------|
A|----------------------------------------|
E|----------------------------------------|


Rhythm Guitar

   B   F# E   F#
e|-----------------|
B|-----------------|
G|-444-------------|
D|-444-44-222-440--|
A|-222-44-222-440--|
E|-----22-000-220--|

second verse- same as first

   B   F# E   F#
e|-----------------|
B|-----------------|
G|-444-------------|
D|-444-44-222-440--|
A|-222-44-222-440--|
E|-----22-000-220--|


Chorus- a little longer

   E        F#       G#       B        E        F#       G#       B
e|-------------------------------------------------------------------------|
B|-------------------------------------------------------------------------|
G|-------------------------------------------------------------------------|
D|-22222222-44444444-66666666-99999999-22222222-44444444-66666666-99999999-|
A|-22222222-44444444-66666666-99999999-22222222-44444444-66666666-99999999-|
E|-00000000-22222222-44444444-77777777-00000000-22222222-44444444-77777777-|

   E        F#
e|------------|
B|------------|
G|------------|
D|-22222222-4-|
A|-22222222-4-|
E|-00000000-2-|


Guitar Solo


e|11--11h12p11–6-6h7p6-4-4h5p4-6-6h7p6----|
B|--12----------7-------5-------7---------|
G|----------------------------------------| 2X
D|----------------------------------------|
A|----------------------------------------|
E|----------------------------------------|

e|11–-11h12h14-6-6h7h9-4-4h5h7-6-6h7h9----|
B|–-12----------7-------5-------7---------|
G|----------------------------------------| 2X
D|----------------------------------------|
A|----------------------------------------|
E|----------------------------------------|

e|-10-10-10-10-10br-10-10-9-9-9-9-9br-7-|
B|--------------------------------------|
G|--------------------------------------|
D|--------------------------------------|
A|--------------------------------------|
E|--------------------------------------|


Rhythm during solo


e|-----------------|
B|-----------------|
G|-444-------------| 4X
D|-444-44-222-440--|
A|-222-44-222-440--|
E|-----22-000-220--|

e|--------------------|
B|--------------------|
G|--------------------|
D|-55555555-44444444--|
A|-55555555-44444444--|
E|-33333333-22222222--|


Bridge

   B        A        G        F#  A    B        A        G        F#  A
e|-------------------------------------------------------------------------|
B|-------------------------------------------------------------------------|
G|--------------------------------------------------------------------2222-|
D|-99999999-77777777-55555555—44447777-99999999-77777777-55555555-44442222-|
A|-99999999-77777777-55555555-44447777-99999999-77777777-55555555-44440000-|
E|-77777777-55555555-33333333-22225555-77777777-55555555-33333333-2222-----|

   p.m......................
   E        F#       E        F#
e|-------------------------------|
B|-------------------------------|
G|-------------------------------|
D|-22222222-44444444-22222222-4--|
A|-22222222-44444444-22222222-4--|
E|-00000000-22222222-00000000-2--|


After Bridge go straight to verse- it’s played twice here. The first time is the same as
but the second time it is played like this with a pause. Listen to it and you’ll figure
out.

   B   F# E     F#
e|-------------------|
B|-------------------|
G|-444---------------|
D|-444-44-2-----440--|
A|-222-44-2-----440--|
E|-----22-0-----220--|


Then the chorus again - even longer

   E        F#       G#       B        E        F#       G#       B
e|-------------------------------------------------------------------------|
B|-------------------------------------------------------------------------|
G|-------------------------------------------------------------------------|
D|-22222222-44444444-66666666-99999999-22222222-44444444-66666666-99999999-|
A|-22222222-44444444-66666666-99999999-22222222-44444444-66666666-99999999-|
E|-00000000-22222222-44444444-77777777-00000000-22222222-44444444-77777777-|

   E        F#       E        F#       E        F#
e|-------------------------------------------------------------------------|
B|-------------------------------------------------------------------------|
G|-------------------------------------------------------------------------|
D|–22222222-44444444-22222222-44444444-22222222-4--------------------------|
A|-22222222-44444444-22222222-44444444-22222222-4--------------------------|
E|-00000000-22222222-00000000-22222222-00000000-2--------------------------|

Do intro again and the last time do what’s in the parenthesis

e|11--11h12p11–6-6h7p6-4-4h5p4-6-6h7p6–(77)--|
B|--12----------7-------5-------7------------|
G|-------------------------------------------|
D|-------------------------------------------|
A|-------------------------------------------|
E|-------------------------------------------|

Rhythm

   B   F# E   F#   B
e|-------------------|
B|-------------------|
G|-444------------(4)|
D|-444-44-222-440-(4)|
A|-222-44-222-440–(2)|
E|-----22-000-220----|

| b  bend
| r  release
| h  hammer-on
| p  pull-off
  p.m.  palm mute

==============================================================================
Suggest correction
Give kudos to tab author, rate the tab!
1 2 3 4 5
comments
print report bad tab
guest
You may want to rate the tab now too:
select rating
Wanna post a correction for this tab? Suggest correction