Oops, an error
Loading. Please wait.

Down With Anarchy Tab

41 views 1 this week
no commentswrite comment
1 2 3 4 5
please rate
add to favorites
launch autoscroll
font size
0
reset
how to read this tab
guitar tuner
Autoscroll
slow
fast
+/-
esc
set tempo
stop
Help us to improve Ultimate-Guitar.com Take our survey!
×
Author
Straight Outta Junior High
Down With Anarchy
Mongoloid Monarchy
Intro:
Guitar  2:
e|--------------------------------|       
B|--------------------------------|
G|--------------------------------|    3x
D|--7-7-7-------------------------|
A|--5-5-5-3-3-3-5-5-5-7-7-7-------|
E|--------1-1-1-3-3-3-5-5-5-------|

e|--------------------------------|
B|--------------------------------|
G|--------------------------------|     4th time
D|--7-7-7-------------------------|
A|--5-5-5-3-3-3-5-5-5-3-2---------|
E|--------1-1-1-3-3-3-1-0---------|

Guitar 1: (guitar 2 repeats above part)
e|------------------------------------------|
B|------------------------------------------|
G|--7-9-10-7-9-6-7------------------7-6-----|
D|-----------------7-8-5-7------------------|
A|-------------------------8-10-7-8---------|
E|------------------------------------------|
	
e|------------------------------------------|
B|------------------------------------------|
G|--7-9-10-7-9-6-7--------------------------|
D|-----------------7-8-5-7------------------|
A|-------------------------8-10-7-8-7-5-----|
E|------------------------------------------|

e|------5-----------------------------------|
B|--6-8---6-8-5-6---5-------------6-5-------|
G|----------------7---6-7-------------------|
D|------------------------7-8-5-7-----------|
A|------------------------------------------|
E|------------------------------------------|

e|------5-----------------------------------|
B|--6-8---6-8-5-6---5-----------------------|
G|----------------7---6-7-------------------|
D|------------------------7-8-5-------------|
A|------------------------------8--7--------|
E|------------------------------------------|

Verse 1:
Both Guitars
e|------------------------------------------|
B|------------------------------------------|
G|------------------------------------------|
D|--7-x8------5-x8--------------------------|
A|--5-x8-3-x8-3-x8-5-5-5-5-3-3-5-5----------|
E|-------1-x8------3-3-3-3-1-1-3-3----------|

Chorus 1: 
Both Guitars
e|------------------------------------|
B|------------------------------------|
G|------------------------------------|
D|------------7-7-7-7-5-5-5-5---------|   x3
A|--8-x5-5-x5-5-5-5-5-3-3-3-3---------|
E|--6-x5-3-x5-------------------------|

e|-------------------------|
B|-------------------------|
G|-------------------------|
D|-------------------------|     4th time
A|--8---------7------------|
E|--6---------5------------|

Guitar  2:
e|--------------------------------|       
B|--------------------------------|
G|--------------------------------|
D|--7-7-7-------------------------|
A|--5-5-5-3-3-3-5-5-5-7-7-7-------|
E|--------1-1-1-3-3-3-5-5-5-------|

e|--------------------------------|
B|--------------------------------|
G|--------------------------------|
D|--7-7-7-------------------------|
A|--5-5-5-3-3-3-5-5-5-3-2---------|
E|--------1-1-1-3-3-3-1-0---------|

Guitar 1: (as guitar 2 plays above part once)
e|------------------------------------------|
B|------------------------------------------|
G|--7-9-10-7-9-6-7------------------7-6-----|
D|-----------------7-8-5-7------------------|
A|-------------------------8-10-7-8---------|
E|------------------------------------------|

e|------------------------------------------|
B|------------------------------------------|
G|--7-9-10-7-9-6-7--------------------------|
D|-----------------7-8-5-7------------------|
A|-------------------------8-10-7-8--7------|
E|------------------------------------------|

Verse 2:
Both Guitars
e|------------------------------------------|
B|------------------------------------------|
G|------------------------------------------|
D|--7-x8------5-x8--------------------------|
A|--5-x8-3-x8-3-x8-5-5-5-5-3-3-5-5----------|
E|-------1-x8------3-3-3-3-1-1-3-3----------|

Chorus 2: 
Both Guitars
e|------------------------------------|
B|------------------------------------|
G|------------------------------------|
D|------------7-7-7-7-5-5-5-5---------|   x3
A|--8-x5-5-x5-5-5-5-5-3-3-3-3---------|
E|--6-x5-3-x5-------------------------|

e|--------------------------------------------|
B|--------------------------------------------|
G|--------------------------------------------|
D|--------------------------------------------|     4th time
A|--8---------7---------5--------7-x8---------|
E|--6---------5---------3--------5-x8---------|

Bridge/Solo:
Guitar 1
e|--------------------------------------------------------|
B|-------------------------------------------------------|
G|-------------------------------------------------------|
D|--7-7--7--7-----------------5-5--5--5------------------|   x6
A|--5-5--5--5--7-9-9--9--9--7-3-3--3--3--5-7-7--7--7--7--|
E|-------------5-7-7--7--7--5------------3-5-5--5--5--5--|

Guitar 2 (after guitar 1 plays above part twice)
e|-----------------------------------------|
B|-------------5h6p5-----------------------|
G|--7-x16-5-x8------h7-6h7p6---------------|
D|--------------------------h7-------------|    x3
A|-----------------------------------------|
E|-----------------------------------------|

e|-----------------------------------------------|
B|-------------5h6p5-----------------------------|
G|--7-x16-5-x8------h7-6h7p6---6h7p6-9-9h10p9-12-|
D|--------------------------h7-------------------|    
A|-----------------------------------------------|
E|-----------------------------------------------|

e|-------------------------------------|
B|-------------------------------------|
G|--9-10-12-10-9-10-12—9h10p9h10-------|   4th time
D|-------------------------------------|   (guitar 2 plays nothing)
A|-------------------------------------|
E|-------------------------------------|

e|--------------------------------------------------|
B|---------------------------13h14p13h14p-13b(15)---|
G|--10h12p10h12-14h15p14h15p------------------------|
D|--------------------------------------------------|
A|--------------------------------------------------|
E|--------------------------------------------------|

Guitar 1
e|------------------------------------------|
B|------------------------------------------|
G|--7-9-10-7-9-6-7------------------7-6-----|
D|-----------------7-8-5-7------------------|
A|-------------------------8-10-7-8---------|
E|------------------------------------------|
	
e|------------------------------------------|
B|------------------------------------------|
G|--7-9-10-7-9-6-7--------------------------|
D|-----------------7-8-5-7------------------|
A|-------------------------8-10-7-8-7-5-----|
E|------------------------------------------|

Guitar 2 comes in playing 
e|--------------------------------|       
B|--------------------------------|
G|--------------------------------|    2x
D|--7-7-7-------------------------|
A|--5-5-5-3-3-3-5-5-5-7-7-7-------|
E|--------1-1-1-3-3-3-5-5-5-------|

Guitar 1 continues with 
e|------5-----------------------------------|
B|--6-8---6-8-5-6---5-------------6-5-------|
G|----------------7---6-7-------------------|
D|------------------------7-8-5-7-----------|
A|------------------------------------------|
E|------------------------------------------|

e|------5-----------------------------------|
B|--6-8---6-8-5-6---5-----------------------|
G|----------------7---6-7-------------------|
D|------------------------7-8-5-5--7--------|
A|------------------------------------------|
E|------------------------------------------|
 
Chorus 3:
Both Guitars
e|------------------------------------|
B|------------------------------------|
G|------------------------------------|
D|------------7-7-7-7-5-5-5-5---------|   x3
A|--8-x5-5-x5-5-5-5-5-3-3-3-3---------|
E|--6-x5-3-x5-------------------------|

e|-----------------------|
B|-----------------------|
G|-----------------------|
D|-----------------------|     4th time
A|--8---------7----------|
E|--6---------5----------|

Outro:
Guitar 2
e|--------------------------------|       
B|--------------------------------|
G|--------------------------------|
D|--7-7-7-------------------------|
A|--5-5-5-3-3-3-5-5-5-7-7-7-------|
E|--------1-1-1-3-3-3-5-5-5-------|

e|-----------------|
B|-----------------|
G|-----------------|
D|-----------------|
A|--8-7------------|
E|--6-5------------|

Guitar 1
e|------------------------------------------|
B|------------------------------------------|
G|--7-9-10-7-9-6-7------------------7-6-----|
D|-----------------7-8-5-7------------------|
A|-------------------------8-10-7-8---------|
E|------------------------------------------|
	
e|------------------------------------------|
B|------------------------------------------|
G|--7-9-10-7-9-6-7--------------------------|
D|-----------------7-8-5-7--------10-9-7----|
A|-------------------------8-10-7-8--7-5----|
E|------------------------------------------|

Suggest correction
Give kudos to tab author, rate the tab!
1 2 3 4 5
comments
print report bad tab
guest
You may want to rate the tab now too:
select rating
Wanna post a correction for this tab? Suggest correction