Oops, an error
Loading. Please wait.

Happy Fun Song Bass Tab

version 1
version 1

Whole song

Interactive

121 views 1 this week
no commentswrite comment
1 2 3 4 5
3 more votes to show rating
add to favorites
launch autoscroll
font size
0
reset
guitar tuner
Autoscroll
slow
fast
+/-
esc
set tempo
stop
Help us to improve Ultimate-Guitar.com Take our survey!
×
Difficulty
novice
Song: Happy Fun Song
Artist: Straight Outta Junior High
Album: Kiss of Deaf
Tuning: Standard

Pre-Verse
G|----------------------|x2
D|----------------------|
A|----55-66-33----55-66-|
E|-33----------33-------|

Verse 1
G|-----------------------------------------x2 -----------------|
D|-----------------------------------------   -----------------|
A|------5555-6666-3333------5555-6666-8888-   -----------------|
E|-3333----------------3333----------------   3-33333333333333-|

Verse 2
G|--------------------------------------|x2
D|--------------------------------------|
A|----------55555555-66666666------5555-|
E|-33333333-------------------6666------|

Chorus
G|-------------------- x3    G|-------------------|
D|--------------------then>> D|-------------------|
A|-66666666------5555-       A|-66666666-55555555-|
E|----------6666------       E|-------------------|

Verse 2
G|--------------------------------------|x2
D|--------------------------------------|
A|----------55555555-66666666------5555-|
E|-33333333-------------------6666------|

Alt. Pre-Verse
G|-------------------------| x2
D|-------------------------|
A|----55-66-33----55-66-88-|
E|-33----------33----------|

Verse 2
G|--------------------------------------|x2
D|--------------------------------------|
A|----------55555555-66666666------5555-|
E|-33333333-------------------6666------|

Chorus
G|-------------------- x3    G|-------------------|
D|--------------------then>> D|-------------------|
A|-66666666------5555-       A|-66666666-55555555-|
E|----------6666------       E|-------------------|

Verse 2
G|--------------------------------------|x2
D|--------------------------------------|
A|----------55555555-66666666------5555-|
E|-33333333-------------------6666------|

Bridge
G|-------------------|x4
D|-------------------|
A|----------------11-|
E|-33---33---22------|

Bridge 2
G|-----------------|x2
D|-----------------|
A|-----6-5-3-------|
E|-3-----------6-1-|

Solo - You're going to have to improvise on this part on couldn't really tell what the 
was doing during this part.

Verse 2
G|--------------------------------------|x2
D|--------------------------------------|
A|----------55555555-66666666------5555-|
E|-33333333-------------------6666------|

End
G|-------------|
D|-------------|
A|----55-66-0~-|
E|-33----------|

Retabbed By: Headshotz75
Original Tab By: ravenbassist(raven_bassist@yahoo.com)

I would like to thanks ravenbassist for his original tab. It was pretty much correct I 
listened to the song and put the parts where they needed to go. I give most of the credit 
him.
Suggest correction
Give kudos to tab author, rate the tab!
1 2 3 4 5
comments
print report bad tab
guest
You may want to rate the tab now too:
select rating
Wanna post a correction for this tab? Suggest correction