Oops, an error
Loading. Please wait.

Happy Fun Song Tab

version 1
version 1

Whole song

Interactive

642 views 1 this week
no commentswrite comment
1 2 3 4 5
2 more votes to show rating
add to favorites
launch autoscroll
font size
0
reset
how to read this tab
guitar tuner
Autoscroll
slow
fast
+/-
esc
set tempo
stop
Help us to improve Ultimate-Guitar.com Take our survey!
×
Difficulty
novice
---------------------------------------------------------------------------
                            HAPPY FUN SONG
----------------------------------------------------------------------------

Straight Outta Junior High
Happy Fun Song
imnotokaymcr07@yahoo.com

Tuning: Standard

INTRO CHORDS
e|-------------------------------------------------------------------------|
B|-------------------------------------------------------------------------|
G|-----------7-7----8-8----5-5----------7-7---8-8--------------------------|
D|----5-5----7-7----8-8----5-5----5-5---7-7---8-8--------------------------|
A|----5-5----5-5----6-6----3-3----5-5---5-5---6-6--------------------------|			x2
E|----3-3-------------------------3-3--------------------------------------|

 Faster part 0:10- 0:20
e|--------------------------------------------------------------------------|
B|--------------------------------------------------------------------------|
G|------------7-7-7-7-8-8-8-8-5-5-5-5---------7-7-7-7-8-8-8-8-10-10-10-10---|
D|----5-5-5-5-7-7-7-7-8-8-8-8-5-5-5-5-5-5-5-5-7-7-7-7-8-8-8-8-10-10-10-10---|
A|----5-5-5-5-5-5-5-5-6-6-6-6-3-3-3-3-5-5-5-5-5-5-5-5-6-6-6-6-8--8--8--8----|	x2
E|----3-3-3-3-------------------------3-3-3-3-------------------------------|

e|-----------------------------------------|
B|-----------------------------------------|
G|-------------77777777-88888888-5555-7777-|
D|----55555555-77777777-88888888-5555-7777-|
A|----55555555-55555555-66666666-3333-5555-|		x2
E|----33333333-----------------------------|

e|------------------------|
B|------------------------|
G|-----88888888-7777-5555-|
D|-----88888888-7777-5555-|
A|-----66666666-5555-3333-|		x3
E|------------------------|

e|-------------------|
B|-------------------|
G|-----88888888-7777-|
D|-----88888888-7777-|
A|-----66666666-5555-|
E|-------------------|

e|-----------------------------------------|
B|-----------------------------------------|
G|-------------77777777-88888888-5555-7777-|
D|----55555555-77777777-88888888-5555-7777-|
A|----55555555-55555555-66666666-3333-5555-|		x2
E|----33333333-----------------------------|

e|-------------------------------------------------------------------------|
B|-------------------------------------------------------------------------|
G|-----------7-7----8-8----5-5----------7-7---8-8---10-10------------------|
D|----5-5----7-7----8-8----5-5----5-5---7-7---8-8---10-10------------------|
A|----5-5----5-5----6-6----3-3----5-5---5-5---6-6---8--8-------------------|			x2
E|----3-3-------------------------3-3--------------------------------------|

Drums and Bass only

e|-----|
B|-----|
G|-----|
D|--5--|
A|--5--|	During drum solo play on the word “Honda”
E|--3--|

e|------------------------|
B|------------------------|
G|-----88888888-7777-5555-|
D|-----88888888-7777-5555-|
A|-----66666666-5555-3333-|		x3
E|------------------------|

e|-------------------|
B|-------------------|
G|-----88888888-7777-|
D|-----88888888-7777-|
A|-----66666666-5555-|
E|-------------------|

e|-----------------------------------------|
B|-----------------------------------------|
G|-------------77777777-88888888-5555-7777-|
D|----55555555-77777777-88888888-5555-7777-|
A|----55555555-55555555-66666666-3333-5555-|		x2
E|----33333333-----------------------------|

e|--------------------|
B|--------------------|
G|--------------------|
D|--55---55-----33-77-|
A|--55---55-----33-77-|	x2
E|--33---33-----11-55-|
PM ………………………..

e|--------------------|
B|--------------------|
G|--------------------|
D|--55---55-----33-77-|
A|--55---55-----33-77-|	x2
E|--33---33-----11-55-|

e|-------------------|
B|-------------------|
G|--5~-5-3-2~-2-3-5~-|
D|--5~-5-3-2~-2-3-5~-|
A|--3~-3-1-0~-0-1-3~-|		x5
E|-------------------|

e|-----------------------------------------|
B|-----------------------------------------|
G|-------------77777777-88888888-5555-7777-|
D|----55555555-77777777-88888888-5555-7777-|
A|----55555555-55555555-66666666-3333-5555-|		x4
E|----33333333-----------------------------|

e|-----------------------|
B|-----------------------|
G|-----------7-7----8-8--|
D|----5-5----7-7----8-8--|
A|----5-5----5-5----6-6--|
E|----3-3----------------|

well that’s about it I didn’t bother with the solo I’m too lazy if anyone figures it out 
be awesome if you emailed it to me @ imnotokaymcr07@yahoo.com
Suggest correction
Give kudos to tab author, rate the tab!
1 2 3 4 5
comments
print report bad tab
guest
You may want to rate the tab now too:
select rating
Wanna post a correction for this tab? Suggest correction