Oops, an error
Loading. Please wait.

Mortimer Tab

557 views 1 this week
no commentswrite comment
1 2 3 4 5
3 more votes to show rating
add to favorites
launch autoscroll
font size
0
reset
how to read this tab
guitar tuner
Autoscroll
slow
fast
+/-
esc
set tempo
stop
Help us to improve Ultimate-Guitar.com Take our survey!
×
tuning:drop c
straight reads the line
mortimer
not the greatest tab cuz i though it together in 5 mins
------------------------------------------------------------|
-8----8----8----8--121212-----------------------------------|
---11---11---11----151515--4 times--------------------------|
------------------------------------------------------------|
------------------------------------------------------------|
------------------------------------------------------------|

-----------------------------------------------|-------------|
-----------------------------------------------|-----4----4--|on
-----------------------------------------------|-----7----7--|last time
-----------------------------------------------|-------------|
---------0-1-2-3-0-1-2-3-0-1-2-0000-0-1-2-0000-|-------------|
-0-1-2-3-0-1-2-3-0-1-2-3-0-1-2-0000-0-1-2-0000-|3bh-0--000---|
Suggest correction
Give kudos to tab author, rate the tab!
1 2 3 4 5
comments
print report bad tab
guest
You may want to rate the tab now too:
select rating
Wanna post a correction for this tab? Suggest correction