Oops, an error
Loading. Please wait.

Flame Still Burns Tab

version 2
version 2

Whole song

4,840 views 27 this week
2 commentsread comments
1 2 3 4 5
accurate
x 3
add to favorites
launch autoscroll
font size
0
reset
how to read this tab
guitar tuner
Autoscroll
slow
fast
+/-
esc
set tempo
stop
Help us to improve Ultimate-Guitar.com Take our survey!
×
Author
Strange Fruit
The Flame Still Burns
From The Motion Picture: Still Crazy
Tabbed by Rob
dionysus1985@hotmail.com


Damn this is a great song, so here we go with a tab for it
im not really that great at making tab so just use this as a rough guide
however i think its pretty accurate, the chords are at least

Intro:
e|-------------------------------------------|
B|-10-14---15-17-12---12-14-15--14-15-17-12--|
G|-------------------------------------------|
D|-------------------------------------------|
A|-------------------------------------------|
E|-------------------------------------------|


A          D           A
I live a life that's surreal
       D          A            E
Where all that I feel I am learning.
    A              D              A
For life has been turned on the lathe,
    D             A                  E
Reshaped with a flame that's still burning.


       F#m              E        A
And in time, it's all a sweet mystery,
          D          A           E
When you shake the tree of temptation.
        F#m              E            A
Yeah, and I, I know the fear and the cost,
        D        A            E
Of a paradise lost in frustration.


Chorus:
          A          E
And the flame still burns
        Bm                     A           E
It's there in my soul for that unfinished goal
          A           E
And the flame still burns
          Bm                  A         E
From a glimmer back then, it lights up again
A
In my life, In my life yeah


Solo:
(play chorus chords under it)
                        ~~
e|--------------------------------------------------------------|
B|-14--15/17-12---12-14b15--14-12---14/15-17-12---14--15/17-17--|
G|--------------------------------------------------------------|
D|--------------------------------------------------------------|
A|--------------------------------------------------------------|
E|--------------------------------------------------------------|
         ~~
e|-------------------------------------------|
B|-12-14b15---14-12---14-15-17-12----10------|
G|-------------------------------------------|
D|-------------------------------------------|
A|-------------------------------------------|
E|-------------------------------------------|

   A           D              A
I, I want my thoughts to be heard
        D      A           E
The unspoken words of my wisdom
A                D              A
Today, as the light starts to Flow
D              A              E
Tomorrow who knows who will listen?


        F#m              E         A
But my life has no language in love,
      D        A           E
No word from above is appearing.
         F#m                E             A
all the time, and time is a fire that's stoked,
            D        A           E
With the reason of hope and believing.


Chorus
          A           E
And the flame still burns
         Bm                           A         E
Yeah, it's there in my soul for that unfinished goal
           A          E
And the flame still burns
         Bm                    A       E
From a glimmer back then, it lights up again
       A
In my life

e|---------------------------------------------------------|
B|----12-14---12-14-15---15b17--15-14-12---17-15-------14--|
G|-14--------------------------------------------16-14-----|
D|---------------------------------------------------------|
A|---------------------------------------------------------|
E|---------------------------------------------------------|

e|--------------------------------------------------------------------|
B|-15/17-17-17---12-14/15p14h15-----12-14--14b15-14-12-----14p12------|
G|-------------------------------14---------------------14--------14\-|
D|--------------------------------------------------------------------|
A|--------------------------------------------------------------------|
E|--------------------------------------------------------------------|

Bridge
 C                          D
Keep a rollin', keep that flame still burnin'
 C                          D
Keep a rollin', while the world keeps turnin'
A      B
Yeah,      keep a rollin'
A      B
Yeah,      keep a rollin'


Chorus
          A           E
And the flame still burns
   Bm                           A         E
it's there in my soul for that unfinished goal
           A          E
And the flame still burns
         Bm                    A       E
From a glimmer back then, it lights up again
          A           E
And the flame still burns
         Bm                           A         E
Yeah, it's there in my soul for that unfinished goal
           A          E
And the flame still burns
         Bm                    A       E
From a glimmer back then, it lights up again
        A
In my life, In my life.


Outro
A    B   repeat 
Yeah...still burns still burns etc

Solo over B minor Pentatonic & B minor Scales i think

end on A

_______________________________________________________

another great track from still crazy though not really worth its own tab
the cool guitar break when kid comes over hill with ghetto-blaster and sheep

tequila mockingbird "track 1"

the soundtack hasnt got this on it, but a variation of this is on brians theme
play it with overdrive reverb and maybe a bit of chorus

e|--------------------------------------------------------------------|
B|--5-5-5-5-5-3/6---6-6-6-6---6-5-3-1----5-5-5-5-3/6--6/8-8/10--10-8--|
G|--------------------------------------------------------------------|
D|--------------------------------------------------------------------|
A|--------------------------------------------------------------------|
E|--------------------------------------------------------------------|

e|-5/12--13-12h13p12-------------13-12--13-12-13-12-13-12-------------|
B|-------------------13---12-13---------------------------13\0--------|
G|--------------------------------------------------------------------|
D|--------------------------------------------------------------------|
A|--------------------------------------------------------------------|
E|--------------------------------------------------------------------|
Suggest correction
What's this?
You can suggest a correction to this tab. Community and Mods will review your correction and vote to approve or reject it.
comments
We did not receive enough feedback on this tab! Please rate:
print report bad tab
1 2 3 4 5
2 comments total.
0 reply
InTiMiDaToR 60 wrote on March 14 2007, 02:27 pm

after the bridge (Keep a rollin', keep that flame still burnin'... and so on) there is a small solo u forgot to add. but overall its really good tab

0 reply
aefuenzag 414 wrote on April 26 2011, 08:55 pm

the chorus sound a little better with this chords :
A E
Bm F#m E

guest
You may want to rate the tab now too:
select rating
Please do not post tabs as comments. Select "correction" instead!