Oops, an error
Loading. Please wait.

Live For Today Tab

1,167 views 1 this week
no commentswrite comment
1 2 3 4 5
please rate
add to favorites
launch autoscroll
font size
0
reset
how to read this tab
guitar tuner
Tab Pro tools
  • play this tab
  • loop segment
  • change instrument
  • show fretboard
  • metronome
×
Best way to learn
"Live For Today"
Autoscroll
slow
fast
+/-
esc
set tempo
stop
Contributor
Strange Fruit - Live For Today
Tabbed By Dionysus
From Motion Picture: Still Crazy
This is just a rough guide,
timing and notes are by no means 100%
Any Questions/Comments/Abuse - dionysus1985@hotmail.com
-----------------------------------------------------------

Guitar 1 - Echo, Chorus/Phaser (Mabye), Chorus - Distortion
Guitar 2 - Distortion
Both Standard Tuning
Guitar 2 Licks are kinda in order
but just listen to the song to get them right


   Guitar 1               hold ____              Guitar 2
e|---------------------------------------|   |-------------|_
B|---------------------------------------|   |-------------| \
G|---------------------------------------|   |--2b3r2-0-2--|  \
D|------7------5--------4----------(2)---|   |-------------|  |
A|----7------5-----5------4------(2)-(0)-|   |-------------|  | 
E|--5------3----------2-----0------------|   |-------------|  |
                                                              |---Repeat x2
   Guitar 1               hold___               Guitar 2      |
e|--------------------------------------|   |-------------|   |
B|--------------------------------------|   |-------------|   |
G|--------------------------------------|   |--2b3r2-0-2--|   |
D|------7------5--------4---------------|   |-------------|  /
A|----7------5-----5------4-------------|   |-------------|_/
E|--5------3----------2-----0-----------|   |-------------|

(play verse right after intro)

Guitar 2 licks
e|--------|
B|-2h3p2--|
G|--------|
D|--------|
A|--------|
E|--------|

e|-----------------------|
B|-2h3p2-----------------|
G|-------3-2-------------|
D|-----------2-0-2-0-----|
A|--------------------0--|
E|-----------------------|

e|--------------|
B|-2h3-2h3-5----|
G|--------------|
D|--------------|
A|--------------|
E|--------------|

e|----------------------|
B|-2h3-2h3-5--3p2h3p2---|
G|--------------------2-|
D|----------------------|
A|----------------------|
E|----------------------|

Verse:  A, G, F#, Em

Prechorus: Guitar 1            _
e|----------------------------| \
B|----------------------------| |
G|----------------------------| |---X 2
D|--9-/-11--7--5--7--4--------| |
A|--9-/-11--7--5--7--4--------| |
E|--7-/-9---5--3--5--2--------|_/

Chorus: Guitar 1                           P.M._____
   A#   F    C     G           A#   F     G     A
e|-----------------------------------------------------------|
B|-----------------------------------------------------------|
G|-3----2----5-----4-----------3----2-----4-----6------------|
D|-3----3----5-----5-----------3----3-----5-----7------------|
A|-1----3----3-----5-----------1----3-----5-----7------------|
E|------1----------3-3-5-6-5-3------1-----3-----5------------|

After Chorus play guitar 1 intro with overdrive

Guitar 2
e|-------------0-----|
B|-------------------|
G|--2b3r2--0---------|
D|-------------------|
A|-------------------|
E|-------------------|

Outro
Guitar 2
e|--------------------------------------------------------------|
B|--------------------------------------------------------------|
G|--2b3r2--0--2-------------------------------14b15r14--12--14--|
D|--------------------------------------------------------------|
A|--------------------------------------------------------------|
E|--------------------------------------------------------------|
comments
We did not receive enough feedback on this tab! Please rate:
print report bad tab
1 2 3 4 5
I want to post or [tab]
guest
You may want to rate the tab now too:
select rating
Please do not post tabs as comments. Select "correction" instead!