Oops, an error
Loading. Please wait.

Detox tab

version 1
version 1

Whole song

Interactive

8,455 views 6 this week
1 commentread comment
1 2 3 4 5
3 more votes to show rating
add to favorites
×
Save as Personal and add changes to this tab that will be seen only by you. Learn more ›
×
You can save this tab as Personal to edit and correct it or add notes. All changes will be seen only by you. Learn more »
launch autoscroll
font size
0
reset
how to read this tab
guitar tuner
edit
Autoscroll
slow
fast
+/-
esc
set tempo
stop
C G C G C E

[Riff 1] 
(x2) (Play Filler 1 after 2nd time)
E|---------------------------------------------------------------------------|
C|---------------------------------------------------------------------------|
G|---------------------------------------------------------------------------|
C|------------44------------------44------------------33------------------33-|
G|2-44-2-55-2-44-2-55-2-44-2-55-2-44-2-55-2-44-2-55-2-33-2-55-2-44-2-55-2-33-|
C|2-44-2-55-2----2-55-2-44-2-55-2----2-55-2-44-2-55-2----2-55-2-44-2-55-2----|
 . .. . .. . .. . .. . .. . .. . .. . .. . .. . .. . .. . .. . .. . .. . ..

[Filler 1]
E|------|
C|------|
G|------|
C|3-3-3-|
G|3-3-3-|
C|------|

[Riff 2] 
(x8)
E|----------------------|
C|----------------------|
G|----------------------|
C|----------------------|
G|2-44-2-55-2-44-2-55-2-|
C|2-44-2-55-2-44-2-55-2-|
 . .. . .. . .. . .. .

[Riff 3] 
(x8) 
(Play Filler 2 after last time)
E|--------|
C|--------|
G|--------|
C|--------|
G|6-6-622-|
C|6-6-622-|
      ..

[Filler 2] 
(pretty fast but it's close.  You can get away with not playing it at all.)
E|---------|
C|---------|
G|---------|
C|---------|
G|66225425-|
C|66225425-|
 ........

[Riff 2] 
(x4)
E|----------------------|
C|----------------------|
G|----------------------|
C|----------------------|
G|2-44-2-55-2-44-2-55-2-|
C|2-44-2-55-2-44-2-55-2-|
 . .. . .. . .. . .. .

[Riff 3] 
(x7) 
(Play Filler 2 after last time)
E|--------|
C|--------|
G|--------|
C|--------|
G|6-6-622-|
C|6-6-622-|
      .. 

[Filler 3]
E|--------------|
C|--------------|
G|--------------|
C|--------------|
G|0-6-7-8-2-4-5-|
C|0-6-7-8-2-4-5-|
         . . .

[Riff 2] 
(x8)
E|----------------------|
C|----------------------|
G|----------------------|
C|----------------------|
G|2-44-2-55-2-44-2-55-2-|
C|2-44-2-55-2-44-2-55-2-|
 . .. . .. . .. . .. .

[Riff 3] 
(x8) 
(Play Filler 2 after last time)
E|--------|
C|--------|
G|--------|
C|--------|
G|6-6-622-|
C|6-6-622-|
      ..

[Riff 4] (x4)
E|-----------------|
C|-----------------|
G|-----------------|
C|5555555555555555-|
G|3333333333333333-|
C|-----------------|

[Riff 2] 
(x4)
E|----------------------|
C|----------------------|
G|----------------------|
C|----------------------|
G|2-44-2-55-2-44-2-55-2-|
C|2-44-2-55-2-44-2-55-2-|
 . .. . .. . .. . .. .

[Riff 4] (x4)
E|-----------------|
C|-----------------|
G|-----------------|
C|5555555555555555-|
G|3333333333333333-|
C|-----------------|

[Filler 4]
E|---------|
C|---------|
G|---------|
C|77777777-|
G|55555555-|
C|---------|

[Riff 2] 
(x8)
E|----------------------|
C|----------------------|
G|----------------------|
C|----------------------|
G|2-44-2-55-2-44-2-55-2-|
C|2-44-2-55-2-44-2-55-2-|
 . .. . .. . .. . .. .

[Riff 4] (x3)
E|-----------------|
C|-----------------|
G|-----------------|
C|5555555555555555-|
G|3333333333333333-|
C|-----------------|

[Filler 4] (x2)
E|---------|
C|---------|
G|---------|
C|77777777-|
G|55555555-|
C|---------|

[Riff 5] (x4) 
E|------------------------------------------------|
C|------------------------------------------------|
G|----------------------------------------------8-|
C|4-4-4----3----3----3---6-6-6----5----5----5---9-|
G|2-2-2-22-3-22-3-22-3-2-4-4-4-44-5-44-5-44-5-4-7-|
C|------22---22---22---2-------44---44---44---4---|
 . . .. . .. . .. . . . . . .. . .. . .. . . .

[Filler 5]
E|--|
C|--|
G|7-|
C|7-|
G|5-|
C|--|

[Riff 2] 
(x4)
E|----------------------|
C|----------------------|
G|----------------------|
C|----------------------|
G|2-44-2-55-2-44-2-55-2-|
C|2-44-2-55-2-44-2-55-2-|
 . .. . .. . .. . .. .

[Riff 4] (x4)
E|-----------------|
C|-----------------|
G|-----------------|
C|5555555555555555-|
G|3333333333333333-|
C|-----------------|

[Riff 2] 
(x4)
E|----------------------|
C|----------------------|
G|----------------------|
C|----------------------|
G|2-44-2-55-2-44-2-55-2-|
C|2-44-2-55-2-44-2-55-2-|
 . .. . .. . .. . .. .

[Riff 4] (x3)
E|-----------------|
C|-----------------|
G|-----------------|
C|5555555555555555-|
G|3333333333333333-|
C|-----------------|

[Filler 4] 
E|---------|
C|---------|
G|---------|
C|77777777-|
G|55555555-|
C|---------|

[Riff 2] 
(x4)
E|----------------------|
C|----------------------|
G|----------------------|
C|----------------------|
G|2-44-2-55-2-44-2-55-2-|
C|2-44-2-55-2-44-2-55-2-|
 . .. . .. . .. . .. .

[Riff 4] (x3)
E|-----------------|
C|-----------------|
G|-----------------|
C|5555555555555555-|
G|3333333333333333-|
C|-----------------|

[Filler 4] (x2)
E|---------|
C|---------|
G|---------|
C|77777777-|
G|55555555-|
C|---------|

[Riff 5] (x4) 
E|------------------------------------------------|
C|------------------------------------------------|
G|----------------------------------------------8-|
C|4-4-4----3----3----3---6-6-6----5----5----5---9-|
G|2-2-2-22-3-22-3-22-3-2-4-4-4-44-5-44-5-44-5-4-7-|
C|------22---22---22---2-------44---44---44---4---|
 . . .. . .. . .. . . . . . .. . .. . .. . . .

[Riff 6]
E|------------------------------------|
C|------------------------------------|
G|------------------------------------|
C|99999999----------77777777----------|
G|77777777-99999999-55555555-77777777-|
C|---------99999999----------77777777-|

[Riff 7]
E|------------------------------------|
C|------------------------------------|
G|------------------------------------|
C|99999999----------------------------|
G|77777777-99999999-88888888-44444444-|
C|---------99999999-88888888-44444444-|

[Riff 6]
E|------------------------------------|
C|------------------------------------|
G|------------------------------------|
C|99999999----------77777777----------|
G|77777777-99999999-55555555-77777777-|
C|---------99999999----------77777777-|

[Riff 8]
E|----------------------------------|
C|----------------------------------|
G|----------------------------------|
C|----------------------------------|
G|8888888888888888-5555555555555555-|
C|8888888888888888-5555555555555555-|

(NOW ALL PALM MUTED.)

[Riff 6]
E|------------------------------------|
C|------------------------------------|
G|------------------------------------|
C|99999999----------77777777----------|
G|77777777-99999999-55555555-77777777-|
C|---------99999999----------77777777-|

[Filler 7]
E|--------------|
C|--------------|
G|--------------|
C|1----2----1---|
G|1-22-2-22-1-2-|
C|--22---22---2-|
 . .. . .. . .

[Riff 6]
E|------------------------------------|
C|------------------------------------|
G|------------------------------------|
C|99999999----------77777777----------|
G|77777777-99999999-55555555-77777777-|
C|---------99999999----------77777777-|

[Riff 8]
E|----------------------------------|
C|----------------------------------|
G|----------------------------------|
C|----------------------------------|
G|8888888888888888-5555555555555555-|
C|8888888888888888-5555555555555555-| 
(not palm muted)

Riff 9 x 4(Play Filler 6 at 4th)

E|---------------------------------------------------|
C|---------------------------------------------------|
G|---------------------------------------------------|
C|---------------------------------------------------|
G|2-h4-2-h4-2-h4-2-h4-2-h4-2-h4-2-h4-2-h4-2-h4-242h4-|
C|2-h4-2-h4-2-h4-2-h4-2-h4-2-h4-2-h4-2-h4-2-h4-242h4-|

[Filler 6]
E|--------------|
C|--------------|
G|--------------|
C|--------------|
G|4-22-4-22-4-2-|
C|4-22-4-22-4-2-|
 . .. . .. . .

[Riff 10] (x4) 
(Palm mute first 2 every time after the 2nd rep)
E|------------------------|
C|------------------------|
G|------------------------|
C|------------------------|
G|222-2-66666-444-4-88888-|
C|222-2-66666-444-4-88888-|

[Filler 7]
E|--------------|
C|--------------|
G|--------------|
C|1----2----1---|
G|1-22-2-22-1-2-|
C|--22---22---2-|
 . .. . .. . .

[Riff 10] (x4) 
(Palm mute first 2 every time after the 2nd rep)
E|------------------------|
C|------------------------|
G|------------------------|
C|------------------------|
G|222-2-66666-444-4-88888-|
C|222-2-66666-444-4-88888-| 

[Filler 7]
E|--------------|
C|--------------|
G|--------------|
C|1----2----1---|
G|1-22-2-22-1-2-|
C|--22---22---2-|
 . .. . .. . .

[Riff 11] (x6)
E|------------------------|
C|------------------------|
G|------------------------|
C|------------------------|
G|222-22-2222-666-66-6666-|
C|222-22-2222-666-66-6666-|

[Filler 7]
E|--------------|
C|--------------|
G|--------------|
C|1----2----1---|
G|1-22-2-22-1-2-|
C|--22---22---2-|
 . .. . .. . .

[Riff 11] (x4)
E|------------------------|
C|------------------------|
G|------------------------|
C|------------------------|
G|222-22-2222-666-66-6666-|
C|222-22-2222-666-66-6666-|

[Riff 12]
E|------------------------------------------------------------------------|
C|------------------------------------------------------------------------|
G|--------55----------------------------------77--------------------------|
C|66554455--665566--------------------66554455--665566--------------------|
G|-----------------44-2-44-2-44-2-44-2----------------44-2-44-2-44-2-44-2-|
C|-----------------44-2-44-2-44-2-44-2----------------44-2-44-2-44-2-44-2-|
 ................... . .. . .. . .. ................... . .. . .. . .. . 

E|------------------------------------------------------------------------|
C|------------------------------------------------------------------------|
G|--------55---------------------------------77---------------------------|
C|66554455--665566-------------------66554455-----------------------------|
G|----------------44-2-44-2-44-2-44-2-----------6-5-4-44-2-44-2-44-2-44-2-|
C|----------------44-2-44-2-44-2-44-2-----------6-5-4-44-2-44-2-44-2-44-2-|
 .................. . .. . .. . .. ............. . . .. . .. . .. . .. .

[Riff 13]
E|------------------------------------|
C|------------------------------------|
G|--------77--------------------------|
C|66554455----------------------------|
G|----------6-5-4-44-2-44-2-44-2-44-2-|
C|----------6-5-4-44-2-44-2-44-2-44-2-|
 ........... . . .. . .. . .. . .. .

[Riff 14]
E|-------------------|
C|-------------------|
G|-------------------|
C|-------------------|
G|22222222-2-55-2-55-|
C|22222222-2-55-2-55-|
 ........ . .. . ..

[Riff 12] (x1.5)
E|------------------------------------------------------------------------|
C|------------------------------------------------------------------------|
G|--------55----------------------------------77--------------------------|
C|66554455--665566--------------------66554455--665566--------------------|
G|-----------------44-2-44-2-44-2-44-2----------------44-2-44-2-44-2-44-2-|
C|-----------------44-2-44-2-44-2-44-2----------------44-2-44-2-44-2-44-2-|
 ................... . .. . .. . .. ................... . .. . .. . .. . 

E|------------------------------------------------------------------------|
C|------------------------------------------------------------------------|
G|--------55---------------------------------77---------------------------|
C|66554455--665566-------------------66554455-----------------------------|
G|----------------44-2-44-2-44-2-44-2-----------6-5-4-44-2-44-2-44-2-44-2-|
C|----------------44-2-44-2-44-2-44-2-----------6-5-4-44-2-44-2-44-2-44-2-|
 .................. . .. . .. . .. ............. . . .. . .. . .. . .. .

Play this instead of the last 2.  Hard to make out.

E|--------------------------------------|
C|--------------------------------------|
G|--------------------------------------|
C|665544--------------------------------|
G|------7744-6-5-4-44-2-44-2-44-2-44-2-|
C|-----------6-5-4-44-2-44-2-44-2-44-2-|
 .......... . . . .. . .. . .. . .. .

[Riff 15]
(I can't make out what the hell they are doing, but this is what I play.)
E|------------------------------------------------------|
C|------------------------------------------------------|
G|------------------------------------------------------|
C|------------------------------------------------------|
G|22-33-2222-33-2222-33-2222-33-2222-33-2222-33-2222-33-|
C|22-33-2222-33-2222-33-2222-33-2222-33-2222-33-2222-33-|
 .. .. .... .. .... .. .... .. .... .. .... .. .... .. 

[Riff 2] 
(x4)
E|----------------------|
C|----------------------|
G|----------------------|
C|----------------------|
G|2-44-2-55-2-44-2-55-2-|
C|2-44-2-55-2-44-2-55-2-|
 . .. . .. . .. . .. .

[Riff 4] (x3)
E|-----------------|
C|-----------------|
G|-----------------|
C|5555555555555555-|
G|3333333333333333-|
C|-----------------|

[Filler 4] (x2)
E|---------|
C|---------|
G|---------|
C|77777777-|
G|55555555-|
C|---------|

[Riff 5] (x4) 
E|------------------------------------------------|
C|------------------------------------------------|
G|----------------------------------------------8-|
C|4-4-4----3----3----3---6-6-6----5----5----5---9-|
G|2-2-2-22-3-22-3-22-3-2-4-4-4-44-5-44-5-44-5-4-7-|
C|------22---22---22---2-------44---44---44---4---|
 . . .. . .. . .. . . . . . .. . .. . .. . . .)

[Riff 6]
E|------------------------------------|
C|------------------------------------|
G|------------------------------------|
C|99999999----------77777777----------|
G|77777777-99999999-55555555-77777777-|
C|---------99999999----------77777777-|

[Filler 7]
E|--------------|
C|--------------|
G|--------------|
C|1----2----1---|
G|1-22-2-22-1-2-|
C|--22---22---2-|
 . .. . .. . .

[Riff 6]
E|------------------------------------|
C|------------------------------------|
G|------------------------------------|
C|99999999----------77777777----------|
G|77777777-99999999-55555555-77777777-|
C|---------99999999----------77777777-|

[Riff 8]
E|----------------------------------|
C|----------------------------------|
G|----------------------------------|
C|----------------------------------|
G|8888888888888888-5555555555555555-|
C|8888888888888888-5555555555555555-| 
(not palm muted)

[Riff 6]
E|------------------------------------|
C|------------------------------------|
G|------------------------------------|
C|99999999----------77777777----------|
G|77777777-99999999-55555555-77777777-|
C|---------99999999----------77777777-|

[Filler 7]
E|--------------|
C|--------------|
G|--------------|
C|1----2----1---|
G|1-22-2-22-1-2-|
C|--22---22---2-|
 . .. . .. . .

[Riff 6]
E|------------------------------------|
C|------------------------------------|
G|------------------------------------|
C|99999999----------77777777----------|
G|77777777-99999999-55555555-77777777-|
C|---------99999999----------77777777-|

[Riff 8]
E|----------------------------------|
C|----------------------------------|
G|----------------------------------|
C|----------------------------------|
G|8888888888888888-5555555555555555-|
C|8888888888888888-5555555555555555-| 
(not palm muted)

[Riff 10]
(Palm mute first 2 every time after the 2nd rep)
E|------------------------|
C|------------------------|
G|------------------------|
C|------------------------|
G|222-2-66666-444-4-88888-|
C|222-2-66666-444-4-88888-|



************************************

| .  Staccato
| h  Hammer-on

************************************

            
            
Suggest correction
Creating personal tab
Creating personal tab
You can edit any tab online and save it as your Personal.

You can edit, replace or remove any tab part or add personal notes – all changes will be seen only by you.

Personal tabs can be accessed anytime from any device, even offline.
Learn more »
Give kudos to tab author, rate the tab!
1 2 3 4 5
comments
print report bad tab
1 comment total.
0 reply
Silen0z 96 Mar 04, 2009 10:26 AM

sounds right most of the time, but the tuning for detox is in dropped-d, unlike the rest from city (except AAA, which is in ... AAA xD)

guest
You may want to rate the tab now too:
select rating
Wanna post a correction for this tab? Suggest correction