Oops, an error
Loading. Please wait.

0303 Tab

1,113 views 9 this week
no commentswrite comment
1 2 3 4 5
please rate
add to favorites
launch autoscroll
font size
0
reset
how to read this tab
guitar tuner
Autoscroll
slow
fast
+/-
esc
set tempo
stop
Help us to improve Ultimate-Guitar.com Take our survey!
×
Stratovarius: 030366

 Guitar 1/2 step down!!!
-------------------------
/\/ = Vibrato

/   = Slide Up

ha  = Harmonic

1/2 = bend half step

 1b
/\ = Bend one tone
-------------------------



    8av.........................................E   (4X)
eb|-------------------------------------------------------------------------|
Bb|------------------------------------------------|------------------------|
Gb|--9-/\/\--4-/\/\--7/\-5---2--/\--5-/\/-4-/\-----|------------------------|
Db|--9-/\/\----/\/\--------------------------------|------------------------|
Ab|--7-/\/\--2-/\/\--5/\-3---0--/\--3-/\/-2-/\---7-|------------------------|
Eb|----------------------------------------------0--------------------------|
Guit 2

eb|-------------------------------------------------------------------------|
Bb|-------------------------------------------------------------------------|
Gb|---------------------------------------2---------------------------------|
Db|--2-2--2--2---2-2--2-2--2--2--2--2--2--2--2--2--2------------------------|
Ab|--2-2--2--2---2-2--2-2--2--2--2--2--2--2--2--2--2------------------------|
Eb|----------0----------0--------------------0-----0------------------------|

...don't try to run...

eb|-------------------------------------------------------------------------|
Bb|-------------------------------------------------------------------------|
Gb|---9-/\/\/--7---5--------------------------9/\/\/---7---5----------------|
Db|--------------------4-4-2------2----------------------------4-4-2------2-|
Ab|---7-/\/\/--5---3---2-2-2-2-2--2-----------7-/\/\/--5---3---2-2-2-2-2--2-|
Eb|--------------------0---0-0-0--0----------------------------0---0-0-0--0-|

chorus ...030366...030366....

(5X)
eb|-------------------------------------------------------------------------|
Bb|----------------------------------|--------------------------------------|
Gb|----------------------------------|--------------------------------------|
Db|--2--2--2--2--2--2--2--2--2--2-3--|2--2--2--2--2--2--2--2--2--2--3/\/----|
Ab|--2--2--2--2--2--2--2--2--2--2-1--|2--2--2--2--2--2--2--2--2--2--1/\/----|
Eb|--0----------------------------------------------------------------------|

Solo
       1b      Pm..........................................................
eb|---/-\-------------------------------------------------------------------|
Bb|--15--15---------7---8----10---8----7------5----7--8---7----5------------|
Gb|---------------7---7----7----7----7------5---5---5---5----5--------------|
Db|-------------------------------------------------------------------------|
Ab|-------------------------------------------------------------------------|
Eb|-------------------------------------------------------------------------|

     1b               ha                             1b
eb|--/\---------------1b-----------------------------/\---------------------|
Bb|--7---7--5---3----/\-----------------------------12--12---13--12--10-12--|
Gb|-----------------4----4--2--0-----------5--------------------------------|
Db|--------------------------------3--2--0---8-7-5--------------------------|
Ab|-------------------------------------------------------------------------|
Eb|-------------------------------------------------------------------------|


eb|---------------------------------------------10------------------------12|
Bb|--13----------13-\12-\10------------13-10-12----12-10-13---------13-10---|
Gb|-------10--8---------------12-10--9----------------------13-10-9---------|
Db|-------------------------------------------------------------------------|
Ab|-------------------------------------------------------------------------|
Eb|-------------------------------------------------------------------------|


eb|-------------------------------------------------------------------------|
Bb|--13---12------10--------------------------------------------------------|
Gb|-----------10-----12--10-9----------------9-10---------10-9----9-10-12---|
Db|----------------------------12-10-9-10-12------12-10-9------12-----------|
Ab|-------------------------------------------------------------------------|
Eb|-------------------------------------------------------------------------|

                         1b
eb|-------14-15-14------/\------------14-15-17/15\14------14-15-17----------|
Bb|----17-----------17-15--15--15-17-------------------15--------------15-17|
Gb|-17--------------------------------------------------------------14------|
Db|-------------------------------------------------------------------------|
Ab|-------------------------------------------------------------------------|
Eb|-------------------------------------------------------------------------|


eb|-----------------------------------------------14/15---------------------|
Bb|-----------------------------------------17-15-------15/17\15-14-15-14---|
Gb|--16--------------------------12-14-16-14--------------------------------|
Db|------14-16\12-------12-14-16--------------------------------------------|
Ab|---------------14-12-----------------------------------------------------|
Eb|-------------------------------------------------------------------------|

                                                         1b
                                                         /\
eb|-------------15----------14--------------------15-17-19/\/\--------------|
Bb|---15--17-19----19-17-15----15--17-19----17-19---------------------------|
Gb|--------------------------------------16---------------------------------|
Db|-------------------------------------------------------------------------|
Ab|-------------------------------------------------------------------------|
Eb|-------------------------------------------------------------------------|

Chorus                              030366...030366...

eb|-------------------------------------------------------------------------|
Bb|-------------------------------------------------------------------------|
Gb|-------------------------------------------------------------------------|
Db|--2-2--2--2--2--2--2--2-2-2-3/\/\----------------------------------------|
Ab|--2-2--2--2--2--2--2--2-2-2-1/\/\----------------------------------------|
Eb|-------0-----0-----------------------------------------------------------|

fade out...


by SErgio Daher - BRAZIL
MAIL:dtheater@hotmail.com
my page: "Guitar Hero Page"
http://www.geocities/SunsetStrip/Stage/2522/
Suggest correction
What's this?
You can suggest a correction to this tab. Community and Mods will review your correction and vote to approve or reject it.
comments
We did not receive enough feedback on this tab! Please rate:
print report bad tab
1 2 3 4 5
guest
You may want to rate the tab now too:
select rating
Please do not post tabs as comments. Select "correction" instead!