Oops, an error
Loading. Please wait.

Abandon Tab

735 views 6 this week
1 commentread comment
1 2 3 4 5
please rate
add to favorites
launch autoscroll
font size
0
reset
how to read this tab
guitar tuner
Autoscroll
slow
fast
+/-
esc
set tempo
stop
Help us to improve Ultimate-Guitar.com Take our survey!
×
Contributor
Difficulty
Tuning
intermediate
C G C F A D
-----------------------------------------------------------------------------
                             Abandon - Stratovarius
-----------------------------------------------------------------------------
Tabbed by: Wuai Bel Ree

Tuning: Drop C

No solo for those looking for it. Solos are beyond my capability. Let me know if there
are any problems. I think I got all the chords and notes correct, but all the fast palm
mutes are hard to count and I ran out of time at the end and did copy and pasting which 
may have left some gaps or missing parts.

D|----------------|---------------------------------------------------------|
A|----------------|---------------------------------------------------------|
F|-----4----------|---------------------------------------------------------|
C|-1---4--6-------|----------------------------------------[x3]-------------|
G|-1---2--6-------|---8-8-8---8-8-8--8-8-8-9-9-11-9-8-----------------------|
C|-1------6---3+~-|--0------0-------0---------------------------------------|

D|--------------------------------------------------------------------------|
A|--------------------------------------------------------------------------|
F|-------------------------------------------8-\----------------------------|
C|-------------------------------------------8-\----------------------------|
G|---8-8-8---9-9-9---8-9-11-11-9-8-6-9-8-6-4-6-\----------------------------|
C|-0-------0-------0--------------------------------------------------------|

D|--------------------------------------------------------------------------|
A|--------------------------------------------------------------------------|
F|--------------------------------------------------------------------------|
C|-\--1---------------------------------------------------------------------|
G|-\--1---[then tremolo palm mute a lot of times, too many to count]--------|
C|-\--1---------------------------------------------------------------------|

D|--------------------------------------------------------------------------|
A|--------------------------------------------------------------------------|
F|--------------------------------------------------------------------------|
C|-4--------------------------6-----------------------------6---------------|
G|-4-[then tremolo palm mute]-6--[then tremolo palm mute]---6---------------|
C|-4--------------------------6-----------------------------6---------------|

D|--------------------------------------------------------------------------|
A|--------------------------------------------------------------------------|
F|------------------6-------------------------------------------------------|
C|-2------6-----2---6---4---------1---2-------------------------------------|
G|-2------6-----2---4---4---------1---2--[more tremolo palm muting]---------|
C|-2------6-----2-------4----3+~--1---2-------------------------------------|

D|--------------------------------------------------------------------------|
A|-|-might be a 3rd fret bar chord hidden after-----------------------------|
F|-v------------------------------------------------------------------------|
C|-2--6---------------------------------------------------------------------|
G|-2--6--[more  tremolo palm muting]----------------------------------------|
C|-2--6-----------------------8-9--11--8--//////////////////////////--------|

D|--------------------------------------------------------------------------|
A|--------------------------------------------------------------------------|
F|--------------------------------------------------------------------------|
C|-1----8-9----4-4-4-4-4-4-4-4-4--3-3-3-3-3-3-3-3-3-------[x2]--------------|
G|-1----8-9----4-4-4-4-4-4-4-4-4--3-3-3-3-3-3-3-3-3-------------------------|
C|-1----8-9----4-4.4.4.4.4.4.4.4.-3-3.3.3.3.3.3.3.3.------------------------|

D|--------------------------------------------------------------------------|
A|--------------------------------------------------------------------------|
F|-10-------------------------11--------------------------------------------|
C|-8--8.-8.-8.-8.-8.-8.-8.-8.-9--9.-9.-9.-9.-9.-9.-9.-9.--------------------|
G|--------------------------------------------------------------------------|
C|--------------------------------------------------------------------------|

D|--------------------------------------------------------------------------|
A|--------------------------------------------------------------------------|
F|-11-----------------------------------------10----------------------------|
C|-9--9.-9.-9.-9.-6-6-6-6-6-4-4-4-4-4-4-4--4--8--8.-8.-8.-8.-8.-8.-8.-8.----|
G|----------------6-6-6-6-6-4-4-4-4-4-4-4--4--------------------------------|
C|----------------6-6.6.6.6-4-4.4.4.4.4.4.-4--------------------------------|

D|--------------------------------------------------------------------------|
A|--------------------------------------------------------------------------|
F|-11-------------------------11--------------6----------5------------------|
C|-9--9.-9.-9.-9.-9.-9.-9.-9.-9--9.-9.-9.-9.--6-[maybe]--5-[maybe]---4------|
G|--------------------------------------------4-[pm's]---3-[pm's]----4------|
C|-------------------------------------------------------------------4------|

D|-------------------|------------------------------------------------------|
A|-------------------|------------------------------------------------------|
F|-------------------|----------------------------------------[x3]----------|
C|-4-4-4-4-4-4-4-4---|------------------------------------------------------|
G|-4-4-4-4-4-4-4-4---|----8-8-8---8-8-8---8-8-8-9-9-11-9-8------------------|
C|-4.4.4.4.4.4.4.4.--|--0-------0-------0-----------------------------------|

D|--------------------------------------------------------------------------|
A|--------------------------------------------------------------------------|
F|-------------------------------------------8-\----------------------------|
C|-------------------------------------------8-\----------------------------|
G|---8-8-8---9-9-9---8-9-11-11-9-8-6-9-8-6-4-6-\----------------------------|
C|-0-------0-------0--------------------------------------------------------|

D|--------------------------------------------------------------------------|
A|--------------------------------------------------------------------------|
F|--------------------------------------------------------------------------|
C|-\--1---------------------------------------------------------------------|
G|-\--1---[then tremolo palm mute a lot of times, too many to count]--------|
C|-\--1---------------------------------------------------------------------|

D|--------------------------------------------------------------------------|
A|--------------------------------------------------------------------------|
F|--------------------------------------------------------------------------|
C|-4--------------------------6-----------------------------6---------------|
G|-4-[then tremolo palm mute]-6--[then tremolo palm mute]---6---------------|
C|-4--------------------------6-----------------------------6---------------|

D|--------------------------------------------------------------------------|
A|--------------------------------------------------------------------------|
F|------------------6-------------------------------------------------------|
C|-2------6-----2---6---4---------1---2-------------------------------------|
G|-2------6-----2---4---4---------1---2--[more tremolo palm muting]---------|
C|-2------6-----2-------4----3+~--1---2-------------------------------------|

D|--------------------------------------------------------------------------|
A|-|-might be a 3rd fret bar chord hidden after-----------------------------|
F|-v------------------------------------------------------------------------|
C|-2--6---------------------------------------------------------------------|
G|-2--6--[more  tremolo palm muting]----------------------------------------|
C|-2--6-----------------------8-9--11--8--//////////////////////////--------|

D|--------------------------------------------------------------------------|
A|--------------------------------------------------------------------------|
F|--------------------------------------------------------------------------|
C|-1----8-9----4-4-4-4-4-4-4-4-4--3-3-3-3-3-3-3-3-3-------[x2]--------------|
G|-1----8-9----4-4-4-4-4-4-4-4-4--3-3-3-3-3-3-3-3-3-------------------------|
C|-1----8-9----4-4.4.4.4.4.4.4.4.-3-3.3.3.3.3.3.3.3.------------------------|

D|--------------------------------------------------------------------------|
A|--------------------------------------------------------------------------|
F|-10-------------------------11--------------------------------------------|
C|-8--8.-8.-8.-8.-8.-8.-8.-8.-9--9.-9.-9.-9.-9.-9.-9.-9.--------------------|
G|--------------------------------------------------------------------------|
C|--------------------------------------------------------------------------|

D|--------------------------------------------------------------------------|
A|--------------------------------------------------------------------------|
F|-11-----------------------------------------10----------------------------|
C|-9--9.-9.-9.-9.-6-6-6-6-6-4-4-4-4-4-4-4--4--8--8.-8.-8.-8.-8.-8.-8.-8.----|
G|----------------6-6-6-6-6-4-4-4-4-4-4-4--4--------------------------------|
C|----------------6-6.6.6.6-4-4.4.4.4.4.4.-4--------------------------------|

D|--------------------------------------------------------------------------|
A|--------------------------------------------------------------------------|
F|-11-------------------------11--------------6----------5------------------|
C|-9--9.-9.-9.-9.-9.-9.-9.-9.-9--9.-9.-9.-9.--6-[maybe]--5-[maybe]---4------|
G|--------------------------------------------4-[pm's]---3-[pm's]----4------|
C|-------------------------------------------------------------------4------|

D|--------------------------------------------------------------------------|
A|--------------------------------------------------------------------------|
F|--------------------------------------------------------------------------|
C|-4-4-4-4-4-4-4-4----------------------------------------------------------|
G|-4-4-4-4-4-4-4-4----------------------------------------------------------|
C|-4.4.4.4.4.4.4.4.---------------------------------------------------------|

[2nd part of solo]

D|--------------------------------------------------------------------------|
A|--------------------------------------------------------------------------|
F|--4-----8-----6--------------------------8-----6-----4-----8-----6--------|
C|--4-----8-----6-----4--3-----2-----6-----8-----6-----4-----8-----6--------|
G|--2-----6-----4-----4--3-----2-----6-----6-----4-----2-----6-----4--------|
C|--------------------4--3-----2-----6--------------------------------------|

D|--------------------------------------------------------------------------|
A|--------------------------------------------------------------------------|
F|--------------------------------------------------------------------------|
C|--4-----3-----2-----6-----4-----5------2----6-----------------------------|
G|--4-----3-----2-----6-----4-----5------2----6-----------------------------|
C|--4-----3-----2-----6-----4-----5------2----6-----------------------------|

D|--------------------------------------------------------------------------|
A|--------------------------------------------------------------------------|
F|--------------------------------------------------------------------------|
C|--2--------------------------2--6-----------------------------------------|
G|--2--[tremolo palm muting]---2--6--[tremolo palm muting]------------------|
C|--2--------------------------2--6-----------------------------------------|

D|--------------------------------------------------------------------------|
A|--------------------------------------------------------------------------|
F|--------------------------------------------------------------------------|
C|-----------------------------------------------8--9-----------------------|
G|-----------------------------------------------8--9-----------------------|
C|-8-9--11--8--//////////////////////////--------8--9-----------------------|

D|--------------------------------------------------------------------------|
A|--------------------------------------------------------------------------|
F|--------------------------------------------------------------------------|
C|---4-4-4-4-4-4-4-4--3-3-3-3-3-3-3-3-3-------------------------------------|
G|---4-4-4-4-4-4-4-4--3-3-3-3-3-3-3-3-3-------------------------------------|
C|---4.4.4.4.4.4.4.4.-3-3.3.3.3.3.3.3.3.------------------------------------|

D|--------------------------------------------------------------------------|
A|--------------------------------------------------------------------------|
F|--------------------------------------------------------------------------|
C|-1----8-9----4-4-4-4-4-4-4-4-4--3-3-3-3-3-3-3-3-3-------------------------|
G|-1----8-9----4-4-4-4-4-4-4-4-4--3-3-3-3-3-3-3-3-3-------------------------|
C|-1----8-9----4-4.4.4.4.4.4.4.4.-3-3.3.3.3.3.3.3.3.------------------------|

D|--------------------------------------------------------------------------|
A|--------------------------------------------------------------------------|
F|-10-------------------------11--------------------------------------------|
C|-8--8.-8.-8.-8.-8.-8.-8.-8.-9--9.-9.-9.-9.-9.-9.-9.-9.--------------------|
G|--------------------------------------------------------------------------|
C|--------------------------------------------------------------------------|

D|--------------------------------------------------------------------------|
A|--------------------------------------------------------------------------|
F|-11-----------------------------------------10----------------------------|
C|-9--9.-9.-9.-9.-6-6-6-6-6-4-4-4-4-4-4-4--4--8--8.-8.-8.-8.-8.-8.-8.-8.----|
G|----------------6-6-6-6-6-4-4-4-4-4-4-4--4--------------------------------|
C|----------------6-6.6.6.6-4-4.4.4.4.4.4.-4--------------------------------|

D|--------------------------------------------------------------------------|
A|--------------------------------------------------------------------------|
F|-11-------------------------11--------------6----------5------------------|
C|-9--9.-9.-9.-9.-9.-9.-9.-9.-9--9.-9.-9.-9.--6-[maybe]--5-[maybe]---4------|
G|--------------------------------------------4-[pm's]---3-[pm's]----4------|
C|-------------------------------------------------------------------4------|

D|-------------------|------------------------------------------------------|
A|-------------------|------------------------------------------------------|
F|-------------------|----------------------------------------[x3]----------|
C|-4-4-4-4-4-4-4-4---|------------------------------------------------------|
G|-4-4-4-4-4-4-4-4---|----8-8-8---8-8-8---8-8-8-9-9-11-9-8------------------|
C|-4.4.4.4.4.4.4.4.--|--0-------0-------0-----------------------------------|

D|--------------------------------------------------------------------------|
A|--------------------------------------------------------------------------|
F|-------------------------------------------8-\----------------------------|
C|-------------------------------------------8-\----------------------------|
G|---8-8-8---9-9-9---8-9-11-11-9-8-6-9-8-6-4-6-\----------------------------|
C|-0-------0-------0--------------------------------------------------------|

************************************

|.    palm mute
| /   pick slide
| \   slide down
| h   hammer-on
| p   pull-off
| ~   vibrato
| +   harmonic
| x   Mute note
| b   Bend
| pb  Pre-bend
| br  Bend release
| pbr Pre-bend release
| brb Bend release bend

************************************
comments
We did not receive enough feedback on this tab! Please rate:
print report bad tab
1 2 3 4 5
1 comment total.
0 reply
Wuai Bel Ree 450 wrote on April 25 2013, 06:48 pm

On the 8-9--11--8 parts, add in palm mutes.

I want to post or [tab]
guest
You may want to rate the tab now too:
select rating
Please do not post tabs as comments. Select "correction" instead!