Oops, an error
Loading. Please wait.

Anthem Of The World Tab

version 1
version 1

Whole song

Interactive

4,207 views 1 this week
no commentswrite comment
1 2 3 4 5
please rate
add to favorites
launch autoscroll
font size
0
reset
how to read this tab
guitar tuner
Tab Pro tools
  • play this tab
  • loop segment
  • change instrument
  • show fretboard
  • metronome
×
Best way to learn
"Anthem Of The World"
Autoscroll
slow
fast
+/-
esc
set tempo
stop
 				   Anthem Of The World
	 			     by Stratovarius
			              from Destiny
				 -----------------------
tabbed by: Fredrik Olsson
e-mail: fredrik.olsson@mbox329.swipnet.se

keyboard-violin intro for guitar
guitar 1
e:--------------------------------------------------------------------------
B:--------------------------------------------------------------------------
G:--------------------------------------------------------------------------  x4 
D:-5-5-4-4-7-5-4-5-5--5-5-4-4-7-5-4-5-5--5-5-4-4-7-5-4-5-5--5-5-4-------4---
A:----------------------------------------------------------------7-6-7---6-
E:--------------------------------------------------------------------------

guitar 2
e:-----------------
B:-----------------
G:-----5---2---4---  x3
D:-2---5---2---4--- 
A:-2---3---0---2---
E:-0---------------

guitar 1
e:-------------------------------------------------------------------------------
B:-------------------------------------------------------------------------10-12-
G:-----------------------------------------------------------------9-11-12-------
D:-----------------4-4-4-4-4-4-4-4-1-1-1-1-1-1-1-1-1-1-1-1--9-11-12--------------
A:-7-7-7-7-7-7-7-7---------------------------------------------------------------
E:-------------------------------------------------------------------------------

guitar 2
e:-----------------
B:-----------------
G:-5---7---4---4---
D:-5---7---4---4---
A:-3---5---2---2---
E:-----------------

guitar and violin
e:--------------------------------------------------------------------------
B:--------------------------------------------------------------------------
G:--------------------------------------------------------------------------  x2 
D:-5-5-4-4-7-5-4-5-5--5-5-4-4-7-5-4-5-5--5-5-4-4-7-5-4-5-5--5-5-4-------4---
A:----------------------------------------------------------------7-6-7---6-
E:--------------------------------------------------------------------------

e:-------------------
B:-------------------
G:-------------------
D:---4-5---4-5-7-4-5-
A:-7-----7-----------
E:-------------------

I don't know the acoustic part..

Tell me can we go on like this..
e:-----------------------------------------
B:-----------------------------------------
G:-9----------7-7------5----------7-7------  x2
D:-9----------7-7------5----------7-7------
A:-7-7-7-7...-5-5-sl\3-3-3-3-3...-5-5-sl/7-
E:-----------------------------------------

Dont't be afraid..
e:------------------------------------------------------
B:------------------------------------------------------
G:-4--9--7------------------4--9--7--------------7-5-7--
D:-4--9--7--5--6--7--8--9---4--9--7--5--6--7--8--7-5-7--
A:-2--7--5--5--6--7--8--9---2--7--5--5--6--7--8--5-5-5--
E:----0-----3--4--5--6--7------0-----3--4--5--6---------

Sing the Anthem Of The World..
e:-----------------------------------------------------------------------
B:-----------------------------------------------------------------------
G:-----7---5---7--9-------5---7---7--------7---5---7--9-------5-------4--
D:-5---7---5---7--9---5---5---7---7----5---7---5---7--9---5---5---5---4--
A:-5---5---3---5--7---5---3---5---5----5---5---3---5--7---5---3---2---2--
E:-3--------------0---3----------------3--------------0---3--------------

guitar and violin
e:--------------------------------------------------------------------------
B:--------------------------------------------------------------------------
G:--------------------------------------------------------------------------  x2 
D:-5-5-4-4-7-5-4-5-5--5-5-4-4-7-5-4-5-5--5-5-4-4-7-5-4-5-5--5-5-4-------4---
A:----------------------------------------------------------------7-6-7---6-
E:--------------------------------------------------------------------------

What about..
e:-----------------------------------------
B:-----------------------------------------
G:-9----------7-7------5----------7-7------  x2
D:-9----------7-7------5----------7-7------
A:-7-7-7-7...-5-5-sl\3-3-3-3-3...-5-5-sl/7-
E:-----------------------------------------

Dont't be afraid..
e:------------------------------------------------------
B:------------------------------------------------------
G:-4--9--7------------------4--9--7--------------7-5-7--
D:-4--9--7--5--6--7--8--9---4--9--7--5--6--7--8--7-5-7--
A:-2--7--5--5--6--7--8--9---2--7--5--5--6--7--8--5-5-5--
E:----0-----3--4--5--6--7------0-----3--4--5--6---------

Sing the Anthem Of The World..
e:-----------------------------------------------------------------------
B:-----------------------------------------------------------------------
G:-----7---5---7--9-------5---7---7--------7---5---7--9-------5-------4--
D:-5---7---5---7--9---5---5---7---7----5---7---5---7--9---5---5---5---4--
A:-5---5---3---5--7---5---3---5---5----5---5---3---5--7---5---3---2---2--
E:-3--------------0---3----------------3--------------0---3--------------

guitar
e:--------------------------------------------------------------------------
B:--------------------------------------------------------------------------
G:--------------------------------------------------------------------------  
D:-5-5-4-4-7-5-4-5-5--5-5-4-4-7-5-4-5-5--5-5-4-4-7-5-4-5-5--5-5-4-------4---
A:----------------------------------------------------------------7-6-7---6-
E:--------------------------------------------------------------------------

speed keyboarding :-)
e:---------------------------------------------------
B:---------------------------------------------------
G:-4--9--7------------------4--9--7------------------
D:-4--9--7--5--6--7--8--9---4--9--7--5--6--7--8--9---
A:-2--7--5--5--6--7--8--9---2--7--5--5--6--7--8--9---
E:----0-----3--4--5--6--7------0-----3--4--5--6--7---

solo
e:------------17--15-15-14-14--------------------17-17---15----17-sl/19-17-
B:-17-17-17...----------------17-17--15-15-14-14-------14---14-------------
G:-------------------------------------------------------------------------
D:------------------------------------------------------------------------- don't know the 
A:------------------------------------------------------------------------- fast part
E:-------------------------------------------------------------------------

then it's
e:-17--15-14-15--14-12-14--12-10-12--10-9-10--8-7-8--7-5-7--5-3-5--
B:-----------------------------------------------------------------
G:-----------------------------------------------------------------

guitar 2 during the whole solo
e:---------------------------------------------------
B:---------------------------------------------------
G:----------------------------------------7-------7--
D:-------4-----7-------------------9---9--7----4--7--
A:-2-----2---2-5---5-7-----10------7---7--5--7----5--
E:-0---0-------------5---5-8-----8-------------------

Sing the Anthem Of The World..
e:-----------------------------------------------------------------------
B:-----------------------------------------------------------------------
G:-----7---5---7--9-------5---7---7--------7---5---7--9-------5-------7--  x2
D:-5---7---5---7--9---5---5---7---7----5---7---5---7--9---5---5---4---7--
A:-5---5---3---5--7---5---3---5---5----5---5---3---5--7---5---3---2---5--
E:-3--------------0---3----------------3--------------0---3--------------

guitar 1
e:-----------------------------------------------------------------
B:-----------------------------------------------------------------
G:----------------------------------------------7----7-------------
D:----7-9-10-9-7-7---------7-------------7-9-10---10---10-9-7------
A:-10---------------7-9-10---10-9-10--10----------------------10-9-
E:-----------------------------------------------------------------

e:---------------------------------------------------------------------------------------
B:-------12-13-12-----------------------------------12-13-15-13-15-13-12-----------------
G:-12-14----------14-14----11-12-14-12-11-12--12-14----------------------14-12-11--12-14-
D:----------------------14---------------------------------------------------------------
A:---------------------------------------------------------------------------------------
E:---------------------------------------------------------------------------------------

guitar 2
e:-----------------------------------------------------------------------
B:-----------------------------------------------------------------------
G:-----7---5---7--9-------5---7---7--------7---5---7--9-------5-------7--  x2
D:-5---7---5---7--9---5---5---7---7----5---7---5---7--9---5---5---4---7--
A:-5---5---3---5--7---5---3---5---5----5---5---3---5--7---5---3---2---5--
E:-3--------------0---3----------------3--------------0---3--------------

guitar
e:-----------------------------------------------------------------------
B:-----------------------------------------------------------------------
G:-----7---5---7--9-------5---7---7--------7---5---7--9-------5-------7--  x4
D:-5---7---5---7--9---5---5---7---7----5---7---5---7--9---5---5---4---7--
A:-5---5---3---5--7---5---3---5---5----5---5---3---5--7---5---3---2---5--
E:-3--------------0---3----------------3--------------0---3--------------

guitar 1
e:-19----19----19-----------17--15----15-----17-19-------19-20-22-20-22-20-19---------------
B:---20----20----20-22-19-15------17----17--------20-17----------------------22-20-19-17-19-
G:-----19----19---------------------17----17------------------------------------------------
D:------------------------------------------------------------------------------------------
A:------------------------------------------------------------------------------------------
E:------------------------------------------------------------------------------------------

fade out...
comments
We did not receive enough feedback on this tab! Please rate:
print report bad tab
1 2 3 4 5
I want to post or [tab]
guest
You may want to rate the tab now too:
select rating
Please do not post tabs as comments. Select "correction" instead!