Oops, an error
Loading. Please wait.

Atlantis Tab

version 2
version 2

Whole song

Interactive

611 views 1 this week
no commentswrite comment
1 2 3 4 5
3 more votes to show rating
add to favorites
launch autoscroll
font size
0
reset
how to read this tab
guitar tuner
Autoscroll
slow
fast
+/-
esc
set tempo
stop
Help us to improve Ultimate-Guitar.com Take our survey!
×
Author
Difficulty
advanced
-----------------------------------------------------------------------------
                             Atlantis - Stratovarius
-----------------------------------------------------------------------------
Tabbed by:abed el rahman baayoun
Email:Saharienrebel@hotmail.com
Tuning:Standard tuning EADGBe

this song is played really fast so there's no pauses ,maybe with delay i don't know

play this {2x}:

e|---0---2--3--10---9---7---3---5---0=---------------------------------------|
B|-0---0--0--0----0---0---0---0---0------------------------------------------|
G|---------------------------------------------------------------------------|
D|---------------------------------------------------------------------------|
A|---------------------------------------------------------------------------|
E|---------------------------------------------------------------------------|

then play:

e|---0---2---3---10---9---7---3---5---0---2---3---10---9---7---3---5---0---2-|
B|-0---0---0---0----0---0---0---0---0---0---0---0----0---0---0---0---0---0---|
G|---------------------------------------------------------------------------|
D|---------------------------------------------------------------------------|
A|---------------------------------------------------------------------------|
E|---------------------------------------------------------------------------|

e|---3---10---9---7---3---5---0=---------------------------------------------|
B|-0---0----0---0---0---0---0------------------------------------------------|
G|---------------------------------------------------------------------------|
D|---------------------------------------------------------------------------|
A|---------------------------------------------------------------------------|
E|---------------------------------------------------------------------------|

then play{2x}:

e|---------------------------------------------------------------------------|
B|---0---2---3---5---3---2---0-------0---2---3---5---3---2---0=--------------|
G|-------------------------------2-------------------------------------------|
D|-0---0---0---0---0---0---0---0---0---0---0---0---0---0---0-----------------|
A|---------------------------------------------------------------------------|
E|---------------------------------------------------------------------------|

then play{2x}:

e|---0---2---3---5---3---2---0-----0---2---3---5---3---2---0=----------------|
B|-0---0---0---0---0---0---0---3-0---0---0---0---0---0---0-------------------|
G|---------------------------------------------------------------------------|
D|---------------------------------------------------------------------------|
A|---------------------------------------------------------------------------|
E|---------------------------------------------------------------------------|

e|---------------------------------------------------------------------------|
B|---------------------------------------------------------------------------|
G|---------------------------------------------------------------------------|
D|---------------------------------------------------------------------------|
A|---------------------------------------------------------------------------|
E|---------------------------------------------------------------------------|

then play{2x}:

e|-7-----------7-----------6-----------6-------------------------------------|
B|-------7-----------7-----------7-----------7-------------------------------|
G|-----6---6-------6---6-------6---6-------6---6=----------------------------|
D|---------------------------------------------------------------------------|
A|---------------------------------------------------------------------------|
E|---------------------------------------------------------------------------|

then play:

e|-10-----------10-----------9------------9----------------------------------|
B|-------10-----------10-----------10-----------10---------------------------|
G|-----9----9-------9----9-------9----9-------9----9-------------------------|
D|---------------------------------------------------------------------------|
A|---------------------------------------------------------------------------|
E|---------------------------------------------------------------------------|

then play:

e|-12-----------12-----------11-----------11---------------------------------|
B|-------12-----------12-----------12-----------12---------------------------|
G|-----11--11-------11--11-------11--11-------11--11-------------------------|
D|---------------------------------------------------------------------------|
A|---------------------------------------------------------------------------|
E|---------------------------------------------------------------------------|

then play:

e|-12-----------12-----------11-----------11=--------------------------------|
B|-------12-----------12-----------12----------------------------------------|
G|-----11--11-------11--11-------11--11--------------------------------------|
D|---------------------------------------------------------------------------|
A|---------------------------------------------------------------------------|
E|---------------------------------------------------------------------------|

then play:

e|---0---2--3--10---9---7---3---5---0=-------------0-------------------------|
B|-0---0--0--0----0---0---0---0---0------------------0-----------------------|
G|-----------------------------------------------------0---------------------|
D|-------------------------------------------------------0=------------------|
A|---------------------------------------------------------------------------|
E|---------------------------------------------------------------------------|

then play:

e|---0---2--3--10---9---7---3---5---0=---------------------------------------|
B|-0---0--0--0----0---0---0---0---0------------------------------------------|
G|---------------------------------------------------------------------------|
D|---------------------------------------------------------------------------|
A|---------------------------------------------------------------------------|
E|---------------------------------------------------------------------------|


| =  Let ring
| /  slide up
| \  slide down
| h  hammer-on
| p  pull-off
| ~  vibrato
| +  harmonic
| x  Mute note
==============================================================================
Suggest correction
Give kudos to tab author, rate the tab!
1 2 3 4 5
comments
print report bad tab
guest
You may want to rate the tab now too:
select rating
Wanna post a correction for this tab? Suggest correction