Oops, an error
Loading. Please wait.

Black Diamond Bass Tab

version 2
version 2

Whole song

3,900 views 3 this week
no commentswrite comment
1 2 3 4 5
2 more votes to show rating
add to favorites
launch autoscroll
font size
0
reset
guitar tuner
Autoscroll
slow
fast
+/-
esc
set tempo
stop
Help us to improve Ultimate-Guitar.com Take our survey!
×
Author
Difficulty
novice
-------------------------------------------------------------------------------
			     Black Diamond - Stratovarius
-------------------------------------------------------------------------------

Tabbed By : Octavio Liberona (espixcore)
e-mail: espihoy92@gmail.com

Tuning: Standard 4 Strings
Start at 0:13
Intro 1
G|--------------------------------|
D|--------------------------------|
A|-4~-------0-------2~------4~----|
E|--------------------------------|
Intro 2
Faster!
G|---------------------------------------------------------------------------|
D|---------------------------------------------------------------------------|
A|-44444444--------2222222244444444------------------------------------------|
E|---------55555555----------------------------------------------------------|
"Again, I see you standing there..."
G|-------------------------|
D|-------------------------|
A|-4~------0xxxx0xxxx0xx0xx|
E|-------------------------|
"Inviting me to get..."
G|---------------------------------------------------------------------------|
D|---------------------------------------------------------------------------|
A|-2~------0~------2~------0~------------------------------------------------|
E|---------------------------------------------------------------------------|
[Repeat 2 previous riffs]
Chorus is same as Intro 2
-------------------------
Guitar Solo
G|---------------------------------------------------------------------------|
D|---------------------------------------------------------------------------|
A|-4-------4-------0-------4-------------------------------------------------|
E|-----4-------4-------0-------4---------------------------------------------|
[Repeat]
Guitar Solo II
G|---------------------------------------------------------------------------|
D|---------------------------------------------------------------------------|
A|-xxxxxxxxxxxx------1111111111111111(x2)------------------------------------|
E|-------------112244--------------------442211------------------------------|
Keyboard Solo is same as Guitar Solo II
Then Intro 1 & 2

That's all, is you have any questions just e-mail me.
Suggest correction
Give kudos to tab author, rate the tab!
1 2 3 4 5
comments
print report bad tab
guest
You may want to rate the tab now too:
select rating
Wanna post a correction for this tab? Suggest correction