Oops, an error
Loading. Please wait.

Black Diamond Bass Tab

version 3
version 3

Whole song

2,034 views 3 this week
no commentswrite comment
1 2 3 4 5
please rate
add to favorites
launch autoscroll
font size
0
reset
guitar tuner
Tab Pro tools
  • play this tab
  • loop segment
  • change instrument
  • show fretboard
  • metronome
×
Best way to learn
"Black Diamond"
Autoscroll
slow
fast
+/-
esc
set tempo
stop
Contributor
Difficulty
Tuning
intermediate
D# G# C# F# A# D#
 -------------------------------------------------------------------------------
			     Black Diamond- Stratovarius
-------------------------------------------------------------------------------

Tabbed By :UnderDog

Tuning:
Eb Ab Db Gb

Intro Keyboard
                       
Intro 2(bass, guitar, drum)
                                                                              
|------------------|---------|-------------------|------------------|
|------------------|---------|-------------------|------------------|
|-5----------------|---------|--1----------------|------------------|
|------------------|---------|-------------------|------------------|
                                                                             
|------------------|---------|-------------------|------------------|
|------------------|---------|-------------------|------------------|
|-3----------------|---------|--5----------------|------------------|
|------------------|---------|-------------------|------------------|

Riff 1. (x2)
                                                                  
|---------------------------------|-------------------------------|
|---------------------------------|-------------------------------|
|--5--5-5-5-5-5-5-5-5-5-5-5-5-5-5-|--5-5-5-5-5-5-5-5-5-5-5-5-3----|
|---------------------------------|-------------------------------|
                                                                     
|---------------------------------|----------------------------------|
|---------------------------------|----------------------------------|
|-1-1-1-1-1-1-1-1-1-1-1-1-1-1-1-1-|--1-1-1-1-1-1-1-1-1-1-3-3-5-5-1-1-|
|---------------------------------|----------------------------------|
                                                                     
|----------------------------------|----------------------------------|
|----------------------------------|----------------------------------|
|--3-3-3-3-3-3-3-3-3-3-3-3-3-3-3-3-|--3-3-3-3-3-3-3-3-3-3-3-3-3-3-3-3-|
|----------------------------------|----------------------------------|

|----------------------------------|----------------------------------|          
|----------------------------------|----------------------------------|
|--5-5-5-5-5-5-5-5-5-5-5-5-5-5-5-5-|--5-5-5-5-5-5-5-5-5-5-5-5-5-5-5-5-|
|----------------------------------|----------------------------------|

Vocals begin (x2)
                  
|-------------------|------------------|-------------------------------|
|-------------------|------------------|-------------------------------|
|--5-5-5-5-5-5-5-5--|-5-5-5-5-5-5-5-5--|--1--1-1-1-1-1--1-1-1-1-1--1-1-|
|-------------------|------------------|-------------------------------|

                               
|-------------------------------|-------------------|------------------|
|-------------------------------|-------------------|------------------|
|--1--1-1-1-1-1--1-1-1-1-1--1-1-|--5-5-5-5-5-5-5-5--|-5-5-5-5-5-5-5-5--|
|-------------------------------|-------------------|------------------|
                                                               
|-------------------------------|-------------------------------|
|-------------------------------|-------------------------------|
|--1--1-1-1-1-1--1-1-1-1-1--1-1-|--1--1-1-1-1-1--1-1-1-1-1--1-1-|
|-------------------------------|-------------------------------|
             
|-------------------|------------------|-------------------|------------------|
|-------------------|------------------|-------------------|------------------|
|--3-3-3-3-3-3-3-3--|-3-3-3-3-3-3-3-3--|--1-1-1-1-1-1-1-1--|-1-1-1-1-1-1-1-1--|
|-------------------|------------------|-------------------|------------------|


|-------------------|------------------|-------------------|------------------|
|-------------------|------------------|-------------------|------------------|
|-3-3-3-3-3-3-3-3-3-|-3-3-3-3-3-3-3-3--|--0-0-0-0-0-0-0-0--|-0-0-0-0-0-0-0-0--|
|-------------------|------------------|-------------------|------------------|


Chorus

I Know I cant't stay...
|---------------------------------|-------------------------------|
|---------------------------------|-------------------------------|
|--5--5-5-5-5-5-5-5-5-5-5-5-5-5-5-|--5-5-5-5-5-5-5-5-5-5-5-5-3----|
|---------------------------------|-------------------------------|
                                                                     
|---------------------------------|----------------------------------|
|---------------------------------|----------------------------------|
|-1-1-1-1-1-1-1-1-1-1-1-1-1-1-1-1-|--1-1-1-1-1-1-1-1-1-1-3-3-5-5-1-1-|
|---------------------------------|----------------------------------|
                                                                     
|----------------------------------|----------------------------------|
|----------------------------------|----------------------------------|
|--3-3-3-3-3-3-3-3-3-3-3-3-3-3-3-3-|--3-3-3-3-3-3-3-3-3-3-3-3-3-3-3-3-|
|----------------------------------|----------------------------------|

|----------------------------------|----------------------------------|          
|----------------------------------|----------------------------------|
|--5-5-5-5-5-5-5-5-5-5-5-5-5-5-5-5-|--5-5-5-5-5-5-5-5-5-5-5-5-5-5-5-5-|
|----------------------------------|----------------------------------|


Pre-(guitar)Solo. 
                                                                                
|------------|------------|------------|------------|
|--0---------|------------|--0---------|------------|
|------------|--0---------|------------|--0---------|
|------------|------------|------------|------------|
                                                                               
|------------|------------|------------|------------|
|------------|------------|--0---------|------------|
|--1---------|--0---------|------------|--0---------|
|------------|------------|------------|------------|


repeat this to the solo 1 ( go with drum )

|------------------------------------| listen to the song to go with this part XD
|----------------------------------0-|
|--0---0-0-0---0-0-0---0--0-0-0-0----|
|------------------------------------|

Solo 1 (guitar and Keyboard)  x4                    
                                                                    
|---------------------------------|----------------------------------|
|---------------------------------|----------------------------------|
|---------------------------------|------------------------------0-0-|
|--0--0-0-0-0-0-0-0-0-0-0-0-0-0-0-|--0-0-0-0-0-0-0-0-0-0-2-2-3-3-----|
                                                                     
|---------------------------------|----------------------------------|
|---------------------------------|----------------------------------|
|--2--2-2-2-2-2-2-2-2-2-2-2-2-2-2-|--2-2-2-2-2-2-2-2-2-2-0-0---------|
|---------------------------------|--------------------------3-3-2-2-|

Solo 2 (guitar start) x1
                                                                              
|------------|------------------|-------------------|------------------|
|------------|------------------|-------------------|------------------|
|------------|------------------|--5-5-5-5-5-5-5-5--|-5-5-5-5-5-5-5-5--|
|--3-3-3-3-3-|-3-3-3-3-3-3-3-3--|-------------------|------------------|
                                                                              
|------------|------------------|-------------------|------------------|
|------------|------------------|-------------------|------------------|
|------------|------------------|--4-4-4-4-4-4-4-4--|-4-4-4-4-4-4-4-4--|
|--2-2-2-2-2-|-2-2-2-2-2-2-2-2--|-------------------|------------------|
                                                                              
|------------|------------------|-------------------|------------------|
|------------|------------------|-------------------|------------------|
|--0-0-0-0-0-|-0-0-0-0-0-0-0-0--|--2-2-2-2-2-2-2-2--|-2-2-2-2-2-2-2-2--|
|------------|------------------|-------------------|------------------|
                                                                              
|------------|------------------|-------------------|------------------|
|------------|------------------|-------------------|------------------|
|------------|------------------|--0-0-0-0-0-0-0-0--|-0-0-0-0-0-0-0-0--|
|--3-3-3-3-3-|-3-3-3-3-3-3-3-3--|-------------------|------------------|


                                                                              
|------------------|---------|-------------------|------------------|
|------------------|---------|-------------------|------------------|
|-5----------------|---------|--1----------------|------------------|
|------------------|---------|-------------------|------------------|
                                                                             
|------------------|---------|-------------------|------------------|
|------------------|---------|-------------------|------------------|
|-3----------------|---------|--5----------------|------------------|
|------------------|---------|-------------------|------------------|

Repeat this to the end of this song

|---------------------------------|-----------------------------------|
|---------------------------------|-----------------------------------|
|--5--5-5-5-5-5-5-5-5-5-5-5-5-5-5-|--5-5-5-5-5-5-5-5-5-5-5-5-3-3------|
|---------------------------------|-----------------------------------|
                                                                     
|---------------------------------|-----------------------------------|
|---------------------------------|-----------------------------------|
|-1-1-1-1-1-1-1-1-1-1-1-1-1-1-1-1-|--1-1-1-1-1-1-1-1-1-1-3-3-5-5-1-1--|
|---------------------------------|-----------------------------------|
                                                                     
|----------------------------------|----------------------------------|
|----------------------------------|----------------------------------|
|--3-3-3-3-3-3-3-3-3-3-3-3-3-3-3-3-|--3-3-3-3-3-3-3-3-3-3-3-3-3-3-3-3-|
|----------------------------------|----------------------------------|

|----------------------------------|----------------------------------|          
|----------------------------------|----------------------------------|
|--5-5-5-5-5-5-5-5-5-5-5-5-5-5-5-5-|--5-5-5-5-5-5-5-5-5-5-5-5-5-5-5-5-|
|----------------------------------|----------------------------------|



| /  slide up
| \  slide down
| h  hammer-on
| p  pull-off
| ~  vibrato
| +  harmonic
| x  Mute note
===============================================================================
comments
We did not receive enough feedback on this tab! Please rate:
print report bad tab
1 2 3 4 5
I want to post or [tab]
guest
You may want to rate the tab now too:
select rating
Please do not post tabs as comments. Select "correction" instead!