Oops, an error
Loading. Please wait.

Call Of The Wilderness Tab

version 1
version 1

Whole song

Interactive

1,445 views 1 this week
no commentswrite comment
1 2 3 4 5
please rate
add to favorites
launch autoscroll
font size
0
reset
how to read this tab
guitar tuner
Tab Pro tools
  • play this tab
  • loop segment
  • change instrument
  • show fretboard
  • metronome
×
Best way to learn
"Call Of The Wilderness"
Autoscroll
slow
fast
+/-
esc
set tempo
stop
CALL OF THE WILDERNESS
Music:Tolkki
from the album "Fourth Dimension"

Tanscribed & tabbed by Alessio Formenti - Lecco - Italy

Explanation:

h:hammer
p:pull-off

Riff 1 

E||-10----------10---8-----------8---6-----------6---5----------------||
B||--6---6---------------6---------------6----------------------------||
G||--7-------7---------------7---------------7------------------------||
D||--0----------------------------------------------------------------||
A||-------------------------------------------------------------------||
e||-------------------------------------------------------------------||
                                          
E||--8-----------8---6-----------6---5-----------5---0----------------||
B||--6---6---------------6---------------6----------------------------||
G||--7-------7---------------7---------------7------------------------||
D||--0----------------------------------------------------------------||
A||-------------------------------------------------------------------||
e||-------------------------------------------------------------------||

E||--6-----------6---5-----------5---3-----------3--------------------||
B||------3---------------3---------------3-----------6-------6--------||
G||----------3---------------3---------------3-----------3------------||
D||--5-------------------------------3-----------------------3--------||
A||-------------------------------------------------------------------||
e||-------------------------------------------------------------------||
                                          
E||--0-----------0---0-----------0------------------------------------||
B||------3---------------3-----------2-------3-------5-------8--------||
G||----------3---------------3----------------------------------------||
D||--2-----------2-----------2----------------------------------------||
A||----------------------------------0-------2-------4-------7--------||
e||-------------------------------------------------------------------||

repeat Riff 1

Riff 2

E||--0---------------0-----------0---------------0--------------------||
B||------3---------------3-----------3---------------3----------------||
G||----------3---------------3-----------3---------------3------------||
D||-------------------------------------------------------------------||
A||--1-------------------------------------------0--------------------||
e||-------------------------------------------------------------------||
                                          
E||--0---------------0-----------0---------------0--------------------||
B||------3---------------3-----------3---------------3----------------||
G||----------3---------------3-----------3---------------3------------||
D||-------------------------------------------------------------------||
A||----------------------------------------------0--------------------||
e||--3---------------------------3------------------------------------||
                                          
E||--0---------------0-----------3---------------3--------------------||
B||------3---------------3-----------5---------------5----------------||
G||----------3---------------3-----------5---------------5------------||
D||-------------------------------------------------------------------||
A||--1---------------------------3------------------------------------||
e||-------------------------------------------------------------------||

   Gtr 1
E||-------------------------------------------------------------------||
B||--6---5h6p5p3---6---5h6p5p3---2---5---3----------------------------||
G||-------------------------------------------------------------------||
D||--0----------------------------------------------------------------||
A||-------------------------------------------------------------------||
e||-------------------------------------------------------------------||
 ||Gtr 2                                                              ||
E||--5---3h5p3p1---5---3h5p3p1---0---3---1----------------------------||
B||-------------------------------------------------------------------||
G||-------------------------------------------------------------------||
D||-------------------------------------------------------------------||
A||-------------------------------------------------------------------||
e||-------------------------------------------------------------------||

repeat Riff 1 (decrease speed at the end)

Riff 3

E||------------------0-------8---6------10----------------------------||
B||----------6-----------6---------------6----------------------------||
G||--7---7-------7-----------------------7----------------------------||
D||--0-----------------------------------0----------------------------||
A||-------------------------------------------------------------------||
e||-------------------------------------------------------------------||
                                          

Suggestion and corrections really welcome, feel free to mail me at
                     forme.lucy@usa.net
HEAVY METAL IS THE LAW
comments
We did not receive enough feedback on this tab! Please rate:
print report bad tab
1 2 3 4 5
I want to post or [tab]
guest
You may want to rate the tab now too:
select rating
Please do not post tabs as comments. Select "correction" instead!