Oops, an error
Loading. Please wait.

Cold Winter Nights Bass Tab

version 1
version 1

Whole song

Interactive

83 views 1 this week
no commentswrite comment
1 2 3 4 5
please rate
add to favorites
launch autoscroll
font size
0
reset
guitar tuner
Autoscroll
slow
fast
+/-
esc
set tempo
stop
Help us to improve Ultimate-Guitar.com Take our survey!
×
Contributor
Difficulty
Tuning
zoltan56 1,610
intermediate
D G C F A D
credit to songsterr for sheet music/tabs

Intro - rest for 8 bars - X 4
F|-----------------|-----------------|                 |-------------|
C|-----------------|-----------------|                 |-------------|
G|-0-0-0-0-0-0-0-0-|-0-0-0-0-0-0-0-0-|                 |-3~~---------|
D|-----------------|-----------------|than finish with |-------------|

rest a bar and finish intro with
F|-----------|
C|-----------|
G|-3-2-3-0~--|
D|-----------|

Verse - X4
F|-----------------|-----------------|-----------------|-----------------|
C|-----------------|-----------------|-----------------|-----------------|
G|-0-0-0-0-0-0-0-0-|-0-0-0-0-0-0-0-0-|-0-0-0-0-0-0-0-0-|-0-0-0-0-3-2-3-0-|
D|-----------------|-----------------|-----------------|-----------------|

Pre Chorus - X 1.5 (meaning stop after the first 2 bars on second time)
F|-----------------|-----------------|-----------------|-----------------|
C|-----------------|-----------------|-----------------|-----------------|
G|-0-0-0-0-0-0-0-0-|-0-0-0-0-0-0-0-0-|-3-3-3-3-3-3-3-3-|-3-3-3-3-3-3-3-3-|
D|-----------------|-----------------|-----------------|-----------------|

Chorus - 2 bar rest after pre chorus than.. 
F|-----------------|-----------------|-----------------|-----------------|
C|-----------------|-----------------|-----------------|-----------------|
G|-0-0-0-0-0-0-0-0-|-3-3-3-3-3-3-3-3-|-----------------|-0-0-0-0-0-0-0-0-|
D|-----------------|-----------------|-3-3-3-3-3-3-3-3-|-----------------|

F|-----------------|-----------------|-----------------|-----------------|
C|-----------------|-----------------|-----------------|-----------------|
G|-----------------|-3-3-3-3-3-3-3-3-|-----------------|-----------------|
D|-1-1-1-1-1-1-1-1-|-----------------|-3-3-3-3-3-3-3-3-|-----------------|

F|-----------------|-----------------|-----------------|-----------------|
C|-----------------|-----------------|-----------------|-----------------|
G|-0-0-0-0-0-0-0-0-|-3-3-3-3-3-3-3-3-|-----------------|-0-0-0-0-0-0-0-0-|
D|-----------------|-----------------|-3-3-3-3-3-3-3-3-|-----------------|

F|-----------------|-----------------|
C|-----------------|-----------------|
G|-----------------|---------------0-|
D|-1-1-1-1-1-1-1-1-|-1-1-1-1-1-1-1---|

Post Chorus - (no rest in between Chorus and this)- 
F|-----------------|-----------------|                 |-------------|
C|-----------------|-----------------|                 |-------------|
G|-0-0-0-0-0-0-0-0-|-0-0-0-0-0-0-0-0-|                 |-3~~---------|
D|-----------------|-----------------|than finish with |-------------|

rest a bar and finish with
F|-----------|
C|-----------|
G|-3-2-3-0~--|
D|-----------|

Verse 2 - X4
F|-----------------|-----------------|-----------------|-----------------|
C|-----------------|-----------------|-----------------|-----------------|
G|-0-0-0-0-0-0-0-0-|-0-0-0-0-0-0-0-0-|-0-0-0-0-0-0-0-0-|-0-0-0-0-3-2-3-0-|
D|-----------------|-----------------|-----------------|-----------------|

Pre Chorus 2 - X 1.5 (meaning stop after the first 2 bars on second time)
F|-----------------|-----------------|-----------------|-----------------|
C|-----------------|-----------------|-----------------|-----------------|
G|-0-0-0-0-0-0-0-0-|-0-0-0-0-0-0-0-0-|-3-3-3-3-3-3-3-3-|-3-3-3-3-3-3-3-3-|
D|-----------------|-----------------|-----------------|-----------------|

Chorus 2 - 
F|-----------------|-----------------|-----------------|-----------------|
C|-----------------|-----------------|-----------------|-----------------|
G|-0-0-0-0-0-0-0-0-|-3-3-3-3-3-3-3-3-|-----------------|-0-0-0-0-0-0-0-0-|
D|-----------------|-----------------|-3-3-3-3-3-3-3-3-|-----------------|

F|-----------------|-----------------|-----------------|-----------------|
C|-----------------|-----------------|-----------------|-----------------|
G|-----------------|-3-3-3-3-3-3-3-3-|-----------------|-----------------|
D|-1-1-1-1-1-1-1-1-|-----------------|-3-3-3-3-3-3-3-3-|-----------------|

F|-----------------|-----------------|-----------------|-----------------|
C|-----------------|-----------------|-----------------|-----------------|
G|-0-0-0-0-0-0-0-0-|-3-3-3-3-3-3-3-3-|-----------------|-0-0-0-0-0-0-0-0-|
D|-----------------|-----------------|-3-3-3-3-3-3-3-3-|-----------------|

F|-----------------|-----------------|
C|-----------------|-----------------|
G|-----------------|---------------0-|
D|-1-1-1-1-1-1-1-1-|-1-1-1-1-1-1-1---|

Post Chorus 2 - X4
F|-----------------|-----------------|
C|-----------------|-----------------|
G|-0-0-0-0-0-0-0-0-|-0-0-0-0-0-0-0-0-|
D|-----------------|-----------------|

Solo - X4
F|-----------------|-----------------|-----------------|-----------------|
C|-----------------|-----------------|-----------------|-----------------|
G|-2-2-2-2-2-2-2-2-|-2-2-2-2-2-2-2-2-|-----------------|-----------------|
D|-----------------|-----------------|-3-3-3-3-3-3-3-3-|-3-3-3-3-3-3-3-3-|

Solo 2 -
F|-----------------|-----------------|  |-----------------|---------------|
C|-----------------|-----------------|  |-----------------|---------------|
G|-0-0-0-0-0-0-0-0-|-0-0-0-0-0-0-0-0-|  |-0-0-0-0-0-0-0-0-|-0-----0-------|
D|-----------------|-----------------|X3|-----------------|----4----------|

Solo 3 - X12
F|-----------------|-----------------|
C|-----------------|-----------------|
G|-----------------|-0-0-0-0-0-0-0-0-|
D|-----------------|-----------------|

Post Solo - X2
F|-----------------|-----------------|-----------------|-----------------|
C|-----------------|-----------------|-----------------|-----------------|
G|-0~~-------------|-----------------|-----------------|-----------------|
D|-----------------|-----------------|-3~~-------------|-----------------|

F|-----------------|-----------------|-----------------|-----------------|
C|-----------------|-----------------|-----------------|-----------------|
G|-----------------|-----------------|-----------------|-----------------|
D|-1~~-------------|-----------------|-3~~-------------|-----------------|

Chorus 3 - 
F|-----------------|-----------------|-----------------|-----------------|
C|-----------------|-----------------|-----------------|-----------------|
G|-0-0-0-0-0-0-0-0-|-3-3-3-3-3-3-3-3-|-----------------|-0-0-0-0-0-0-0-0-|
D|-----------------|-----------------|-3-3-3-3-3-3-3-3-|-----------------|

F|-----------------|-----------------|-----------------|-----------------|
C|-----------------|-----------------|-----------------|-----------------|
G|-----------------|-3-3-3-3-3-3-3-3-|-----------------|-----------------|
D|-1-1-1-1-1-1-1-1-|-----------------|-3-3-3-3-3-3-3-3-|-----------------|

F|-----------------|-----------------|-----------------|-----------------|
C|-----------------|-----------------|-----------------|-----------------|
G|-0-0-0-0-0-0-0-0-|-3-3-3-3-3-3-3-3-|-----------------|-0-0-0-0-0-0-0-0-|
D|-----------------|-----------------|-3-3-3-3-3-3-3-3-|-----------------|

F|-----------------|-----------------|
C|-----------------|-----------------|
G|-----------------|---------------0-|
D|-1-1-1-1-1-1-1-1-|-1-1-1-1-1-1-1---|

Post Chorus 3 - 
F|-----------------|-----------------|   |-----------------|----------------|
C|-----------------|-----------------|   |-----------------|----------------|
G|-0-0-0-0-0-0-0-0-|-0-0-0-0-0-0-0-0-|   |-0~~-------------|----------------|
D|-----------------|-----------------|X12|-----------------|-3~~------------|

Outro - X2(only kind of difficult part to get timing right)
F|---------------|---------------------|
C|---------------|---------------------|
G|-----0-----0---|------3--3--2-----0--|
D|---------------|---------------3-----|
Suggest correction What's this?
You can suggest a correction to this tab. Community and Mods will review your correction and vote to approve or reject it.
comments
We did not receive enough feedback on this tab! Please rate:
print report bad tab
1 2 3 4 5
I want to post or [tab]
guest
You may want to rate the tab now too:
select rating
Please do not post tabs as comments. Select "correction" instead!