Oops, an error
Loading. Please wait.

Coming Home Bass Tab

version 1
version 1

Whole song

Interactive

962 views 1 this week
no commentswrite comment
1 2 3 4 5
please rate
add to favorites
launch autoscroll
font size
0
reset
guitar tuner
Autoscroll
slow
fast
+/-
esc
set tempo
stop
Help us to improve Ultimate-Guitar.com Take our survey!
×
Author
Difficulty
Tuning
intermediate
D# G# C# F# A# D#
-------------------------------------------------------------------------------
			     SONG NAME - Band Name
-------------------------------------------------------------------------------

Tabbed By : UnderDog

Tuning: F# C# G# D# 



 Intro                                                     
F#||-------------------|-------------------|-------------------|
C#||-------------------|-------------------|-------------------|
G#||-------------------|WAIT-FOR-THE-CHORUS|-------------------|
D#||-------------------|-------------------|-------------------|
 
   Verse 1                                             
|--------------------|-------------------|
|*-------------------|-------------------|
|*------------WAIT-FOR-THE-CHORUS--------|
|--------------------|-------------------|
              
  Chorus                                                    
|--------------------------|---------------------------|
|--------------------------|-------------------4-5-4---|
|--------------7-7-10--9-7-|--5-~~~~-----5---5-------5-|
|--0~~~---~~~~-------------|----------5----------------|
 
--------------------------|---------------------------|
--------------------------|-------------------4-5-4---|
--------------7-7-10--9-7-|--5--~~~~~---5---5-------5-|
--0-----------------------|----------5----------------|



--------------------------|--------------------------|
--------------------------|--------------------------|
--7--7--7--7--7--7--7--7--|--5--5--5-----5--5--5--5--|
--------------------------|-----------5--------------|

               
--------------------------|--------------------------|-------------------|
--------------------------|--------------------------|-------------------|
--7--7--7--7--7--7--7--7--|--5--5--5-----5--5--5--5--|--3----------------|
--------------------------|-----------5--------------|-------------------|

            
----------------------|-------------------|-------------------|
----------------------|-------------------|-------------------|
--2----L--0--2--------|-------------------|-------------------|
----------------------|--0-~~~~~~~~~~~~~~~|~~~~~~~~~~~~~~~~~~~|


                                          Verse 2                       
-------------------|-------------------|-------------------|
-------------------|-------------------|-------------------|
-------------------|-------------------|--7----------------|
~~~~~~~~~~~~~~~~~~~|~~~~~~~~~~~~~~~~~~~|-------------------|

          
--------------------|-------------------|-------------------|
--------------------|-------------------|-------------------|
--------------------|-------------------|-------------------|
--7------------7----|--8----------------|--3----------------|

              
-------------------|--------------------|-------------------|
-------------------|--------------------|-------------------|
-------------------|--------------------|--5----------------|
--5----------------|--8------------8----|-------------------|


-------------------|-------------------|--------------------|
-------------------|-------------------|--------------------|
--L----------------|--7----------------|--------------------|
-------------------|-------------------|--7------------7----|

            
-------------------|-------------------|-------------------|
-------------------|-------------------|-------------------|
-------------------|-------------------|-------------------|
--8----------------|--3----------------|--5----------------|


               
--------------------|-------------------|-------------------|
--------------------|-------------------|-------------------|
--------------------|--5------~~~~~~----|~~~~~~~~~~~~~~~~~~~|
--8------------8----|-------------------|-------------------|

          
--------------------------|-------------------|-----------------------|
--------------------------|-------------------|-----------------------|
--3-3-3-3-3---------------|-------------------|--3-3-3-3-3------------|
-------------------12\----|--0----------------|-----------------------|
              2d Fret to 12 fret
              >>>>>>>>>>>>>>>>>
                      

Chorus                                                    
-------------------|------------------------------|--------------------------|
-------------------|------------------------------|--------------------------|
--5----------------|--7------7--7--7--7--7--7--7--|--5--5--5-----5--5--5--5--|
-------------------|------------------------------|-----------5--------------|

 
--------------------------|--------------------------|
--------------------------|--------------------------|
--7--7--7--7--7--7--7--7--|--5--5--5-----5--5--5--5--|
--------------------------|-----------5--------------|

 
--------------------------|--------------------------|
--------------------------|--------------------------|
--7--7--7--7--7--7--7--7--|--5--5--5-----5--5--5--5--|
--------------------------|-----------5--------------|

 
--------------------------|--------------------------|
--------------------------|--------------------------|
--3--3--3--3--3--3--3--3--|--2--2--2--2--2--2--2--2--|
--------------------------|--------------------------|


--------------------------|----------------------------------|
--------------------------|----------5---------------2-------|
--3--3--3--3--5--5--5--5--|----------------------------------|
--------------------------|--3-2-0-0---0-0-0-3-2-0-0---0-0-0-|

--------------------------|----------------------------------|
--------------------------|----------5---------------2-------|
--3--3--3--3--5--5--5--5--|----------------------------------|
--------------------------|--3-2-0-0---0-0-0-3-2-0-0---0-0-0-|

               
--------------------------|----------------------|-------------------|
--------------------------|----------------------|-------------------|
--3--3--3--3--5--5--5--5--|-------5----7----5----|--3----------------|
--------------------------|--3-------------------|-------------------|


-------------------|--------------------------|--------------------------|
-------------------|--------------------------|--------------------------|
--2----------------|--7--7--7--7--7--7--7--7--|--5--5--5-----5--5--5--5--|
-------------------|--------------------------|-----------5--------------|


--------------------------|--------------------------|
--------------------------|--------------------------|
--3--3--3--3--3--3--3--3--|--2--2--2--2--2--2--2--2--|
--------------------------|--------------------------|

--------------------------|--------------------------|
--------------------------|--------------------------|
--7--7--7--7--7--7--7--7--|--5--5--5-----5--5--5--5--|
--------------------------|-----------5--------------|


--------------------------|--------------------------|
--------------------------|--------------------------|
--3--3--3--3--3--3--3--3--|--2--2--2--2--2--2--2--2--|
--------------------------|--------------------------|

  Repeat this till the end
|---------------------------|--------------------------|
|*--------------------------|--------------------------|
|*--7--7--7--7--7--7--7--7--|--5--5--5-----5--5--5--5--|
|---------------------------|-----------5--------------|

  
--------------------------|---------------------------||
--------------------------|--------------------------*||
--3--3--3--3--3--3--3--3--|--2--2--2--2--2--2--2--2--*||
--------------------------|---------------------------||

thanks XD

| /  slide up
| \  slide down
| h  hammer-on
| p  pull-off
| +  harmonic
| ~~ Let ring
===============================================================================
Suggest correction
Give kudos to tab author, rate the tab!
1 2 3 4 5
comments
print report bad tab
guest
You may want to rate the tab now too:
select rating
Please do not post tabs as comments. Select "correction" instead!