Oops, an error
Loading. Please wait.

Darkness Bass Tab

487 views 6 this week
no commentswrite comment
1 2 3 4 5
please rate
add to favorites
launch autoscroll
font size
0
reset
guitar tuner
Autoscroll
slow
fast
+/-
esc
set tempo
stop
Help us to improve Ultimate-Guitar.com Take our survey!
×
Author
Difficulty
intermediate
Stratovarius - Darkness - Album= Fright Night
There can be very much mistakes but sounds good to me.

heres is a keyboard intro if you wanna play it
KEYBOARD INTRO WITH BASS:

F#----9-------------7--11-|
C#-------9-------7--------|   3X
G#-7--------10-9----------|
D#------------------------|

INTRO!
Real bass line:
---------------------------------------------------|
---------------------------------------------------|
-------let ring------------------------------3-3---|3~~~~
---0-~~~~~~~~~~~~~~~0~~~~~~~~~~~~~0~~~~~~~~--------|

Timo starts sing.
---------------|
---------------|   8X
---------------|
--0~~~~~~~~~~~~


---------------|
---------------|
-7----9----10--|
---------------| End of the intro!
                                              and fourth time goes like
                                             this.

----------------------------------       ---------------------------|
----------------------------------  3X   ---------------------------|
--7--5--7------7--5--7--77--8-----       --7--5--7-----7--5--7------|(Rest)
-----------0----------------------       -----------0---------------|


----------------------------------      -----------------|
----------------------------------  4X  -----------------| timo sing
--7--5--7------7--5--7--77--8-----      ---7-------------|
-----------0----------------------      ----let ring-----|


----------------------------------      ----------------|
----------------------------------  1X  ----------------|
--7--5--7------7--5--7--77--8-----      ---7------------|
-----------0----------------------      ------let ring--|

----------------------------------      ----------------|
----------------------------------  1X  ----------------|
--7--5--7------7--5--7--77--8-----      ---7------------|
-----------0----------------------      ------let ring--|


----------------------------------      ----------------|
----------------------------------  1X  ----------------|
--7--5--7------7--5--7--77--8-----      ---7------------|
-----------0----------------------      ------let ring--|


----------------------------------|
----------------------------------|  1X
--7--5--7------7--5--7--77--8-----|
-----------0----------------------|

Pre Chorus.
----------------------------------------------------------------------|
---------------------------------------------------10-9-7----9-7------|
--5555555555555---------------7777777777777777777---------10-----10-9-|
----------------5555555555555-----------------------------------------|

----------------------------------------------------------------------|
----------------------------------------------------------------------|
--5555555555555---------------333333333333333----222222222---2~~------|
----------------5555555555555-----------------------------------------|

-----------------------------------------------------------------|
-----------------------------------------------------------------|
--3--2--0---222222222222---2~~~~----~3--2--0---22222222222---2~~-|
-----------------------------------------------------------------|

---------------------------------|
---------------------------------|  When the Darkness enters into your room
--3--2--0---222222222222---2~~~~-|
---------------------------------|

--------------------------------- ---------------------------------|
-------------------------------- -      -  9-10-7-9----7-----------|
--7-7--7---5~~-5-5--5--5-5----  ---    -------------10----9-10-----|
-----------------------~~--8  8~8~--8--8-8-------------------------|


---------------------------------------------------------|
-------------------------------- ------------------------|
--7-7--7---5~~-5-5--5--5-5----------------~--------------|
-----------------------~~--88~8~--8--8-8--8--88--7~~~~---|

When the darkness enters into your room
--------------------------------------|
--------------------------------------|
--7--9--10--9--7--12--10--9--5--7-----|
--------------------------------------|


----------------------------------       ---------------------------|
----------------------------------  3X   ---------------------------|
--7--5--7------7--5--7--77--8-----       --7--5--7-----7--5--7------|(Rest)
-----------0----------------------       -----------0---------------|


----------------------------------      -----------------|
----------------------------------  4X  -----------------| timo sing
--7--5--7------7--5--7--77--8-----      ---7-------------|
-----------0----------------------      ----let ring-----|


----------------------------------      ----------------|
----------------------------------  1X  ----------------|
--7--5--7------7--5--7--77--8-----      ---7------------|
-----------0----------------------      ------let ring--|

----------------------------------      ----------------|
----------------------------------  1X  ----------------|
--7--5--7------7--5--7--77--8-----      ---7------------|
-----------0----------------------      ------let ring--|


----------------------------------      ----------------|
----------------------------------  1X  ----------------|
--7--5--7------7--5--7--77--8-----      ---7------------|
-----------0----------------------      ------let ring--|


----------------------------------|
----------------------------------|  1X
--7--5--7------7--5--7--77--8-----|
-----------0----------------------|

Pre Chorus.
----------------------------------------------------------------------|
---------------------------------------------------10-9-7----9-7------|
--5555555555555---------------7777777777777777777---------10-----10-9-|
----------------5555555555555-----------------------------------------|

----------------------------------------------------------------------|
----------------------------------------------------------------------|
--5555555555555---------------333333333333333----222222222---2~~------|
----------------5555555555555-----------------------------------------|

-----------------------------------------------------------------|
-----------------------------------------------------------------|
--3--2--0---222222222222---2~~~~----~3--2--0---22222222222---2~~-|
-----------------------------------------------------------------|

---------------------------------|
---------------------------------|  When the Darkness enters into your room
--3--2--0---222222222222---2~~~~-|
---------------------------------|

--------------------------------- ---------------------------------|
-------------------------------- -      -  9-10-7-9----7-----------|
--7-7--7---5~~-5-5--5--5-5----  ---    -------------10----9-10-----|
-----------------------~~--8  8~8~--8--8-8-------------------------|


---------------------------------------------------------|
-------------------------------- ------------------------|
--7-7--7---5~~-5-5--5--5-5----------------~--------------|
-----------------------~~--88~8~--8--8-8--8--88--7~~~~---|

When the darkness enters into your room
--------------------------------------|
--------------------------------------|
--7--9--10--9--7--12--10--9--5--7-----|
--------------------------------------|

Calm Down part.
--------------------------------------|
--------------------------------------|
--------------------------------------|  play this about 40 times
---0------0------0------0-----0-------|

--------------------------------------------------|
--------------------------------------------------|
--3~~~~~~~~3---5---7~~~~~~--~3~~~~~~~2~~~~~~------|
--------------------------------------------------|
Guitar solo (slow)
-----------------------------------------------------------------|
---------------------------------------------9-10-7-9----7-------| 4X
--7--77--7--77--9--99--9--99--------------------------10---9-10--|
------------------------------8--88--8--88-----------------------|

Guitar solo (fast)
2X
---------------------------------------------------------------------------|
---------------------------------------------------------------------------|
-77777777777777-9999999999999999-------------------------------------------|
---------------------------------88888888888888888888---777777777777777777-|

2x
---------------------------------------------------------------------------|
---------------------------------------------------------------------------|
-77777777777777-9999999999999999-------------------------------------------|
---------------------------------88888888888888888888---777777777777777777-|

   When the darkness enteerss. iiiiiintooo your roooom
---------------------------------------------------------------------------|
---------------------------------------------------------------------------|
-77777777777777-9999999999999999-------------------------------------------|
---------------------------------88888888888888888888---777777777777777777-|

When the darkness enteerss. iiiiiintooo your!!!
--------------------------------------------------------------------------|
--------------------------------------------------------------------------|
-77777777777777-9999999999999999------------------------------------------|
---------------------------------888888888888888REST----------------------|
ROOOOOOOOOOOOOOOOOOOOOOOOOOOM
---------------------------------------|
---------------------------------------|
---------------------------------------|
--7777777777777777777777777777777777---|
Suggest correction
What's this?
You can suggest a correction to this tab. Community and Mods will review your correction and vote to approve or reject it.
comments
We did not receive enough feedback on this tab! Please rate:
print report bad tab
1 2 3 4 5
guest
You may want to rate the tab now too:
select rating
Please do not post tabs as comments. Select "correction" instead!