Oops, an error
Loading. Please wait.

Dreamspace Bass Tab

version 1
version 1

Whole song

Interactive

55 views 1 this week
no commentswrite comment
1 2 3 4 5
please rate
add to favorites
launch autoscroll
font size
0
reset
guitar tuner
Tab Pro tools
  • play this tab
  • loop segment
  • change instrument
  • show fretboard
  • metronome
Autoscroll
slow
fast
+/-
esc
set tempo
stop
Contributor
Difficulty
novice
credit to songsterr for sheet music/tabs

Intro - rest 8 bars - X2
G|-----------------|-----------------|-----------------|-----------------|
D|-----------------|-----------------|-----------------|-----------------|
A|-4~--------------|-----------------|-2~--------------|-----------------|
E|-----------------|-----------------|-----------------|-----------------|

G|-----------------|-----------------|-----------------|-----------------|
D|-----------------|-----------------|-----------------|-----------------|
A|-0~--------------|-----------------|-----------------|-----------------|
E|-----------------|-----------------|-2~--------------|-----------------|

Intro 2 - 
G|-------------------|----------------|-------------------|----------------|
D|-------------------|----------------|-------------------|----------------|
A|-4-4-4-4-4-4-4-4~--|--4-4-4-4-4-4-4-|-2-2-2-2-2-2-2-2~--|--2-2-2-2-2-2-2-|
E|-------------------|----------------|-------------------|----------------|

G|-------------------|----------------|-------------------|----------------|
D|-------------------|----------------|-------------------|----------------|
A|-0-0-0-0-0-0-0-0~--|--0-0-0-0-0-0-0-|-------------------|--------------2-|
E|-------------------|----------------|-2-2-2-2-2-2-2-2~--|--2-2-2-2-2-2---|

G|-------------------|----------------|-------------------|----------------|
D|-------------------|----------------|-------------------|----------1-2-1-|
A|-4-4-4-4-4-4-4-4~--|--4-4-4-4-4-4-4-|-2-2-2-2-2-2-2-2~--|--2-2-2-2-------|
E|-------------------|----------------|-------------------|----------------|

G|-------------------|----------------|-------------------|----------------|
D|-------------------|----------------|-------------------|----------------|
A|-0-0-0-0-0-0-0-0~--|--0-0-0-0-0-0-0-|-------------------|----2---2---2---|
E|-------------------|----------------|-2-2-2-2-2-2-2-2~--|----------------|

Verse 1 - X 1.75 (meaning only play up to fourth bar second time)
G|-----------------|-----------------|-----------------|-----------------|
D|-----------------|-----------------|-----------------|-----------------|
A|-4~--------------|---------------4-|-0~--------------|---------------4-|
E|-----------------|-----------------|-----------------|-----------------|

Verse 1 Cont -
G|-----------------|-----------------|-----------------|-----------------|
D|-----------------|-----------------|-----------------|-----------------|
A|-4-4-4-4-4-4-4-4-|-4-4-4-4-4-4-4-4-|-0-0-0-0-0-0-0-0-|-0-0-0-0-0-0-0-4-|
E|-----------------|-----------------|-----------------|-----------------|

G|-----------------|-----------------|-----------------|-----------------|
D|-----------------|-----------------|-----------------|-----------------|
A|-4-4-4-4-4-4-4-4-|-4-4-4-4-4-4-4-4-|-----------------|-------------7---|
E|-----------------|-----------------|-5-5-5-5-5-5-5-5-|-5-5-5-5-5-5-----|

Chorus 1 - X2
G|-----------------|-----------------|-----------------|-----------------|
D|-----------------|-----------------|-----------------|-----------------|
A|-----------------|-----------------|-----------------|-----------------|
E|-0-0-0-0-0-0-0-0-|-0-0-0-0-0-0-0-0-|-0-0-0-0-0-0-0-0-|-0-0-0-0-0-0-0-5-|

G|-----------------|-----------------|-----------------|-----------------|
D|-----------------|-----------------|-----------------|-----------------|
A|-3-3-3-3-3-3-3-3-|-3-3-3-3-3-3-3-3-|-3-3-3-3-3-3-3-3-|-3-3-3-3-3-3---3-|
E|-----------------|-----------------|-----------------|-------------5---|

Chorus 1 Cont - 
G|-----------------|-----------------|-----------------|-----------------|X1
D|-----------------|-----------------|-----------------|-----------------|X1
A|-5---5-5-5-5-5-5-|-5---5-5-5-5-----|-5---5-5-5-5-5-5-|-5---5-5-5-5-5-5-|X1
E|-----------------|-------------5-5-|-----------------|-----------------|X1

G|-----------------|-----------------|-----------------|X2|--------------|
D|-----------------|-----------------|-----------------|X2|--------------|
A|-----------------|---5-------------|-----------5-----|X2|--------------|
E|-0-0-0-3-0-0-1-0-|-0---0-0-0-0-0-3-|-0-0-1-0-0---0-0-|X2|0~~~----------|

Interlude - nothing for a while but listen for this small part
G|-------------|--------------|
D|-------------|--------------|
A|-2----2----2-|--2----2----2-|
E|-------------|--------------|

Break - again big rest for around 17 bars, easy timing once you listen - X2
G|-----------------|-----------------|-----------------|-----------------|
D|-----------------|-----------------|-----------------|-----------------|
A|-0~~~----------0~|~--0-0~~~------0-|-0~~~----------0~|~--0-0-----------|
E|-----------------|-----------------|-----------------|-----------------|

Break 2 - X2
G|-----------------|-----------------|-----------------|-----------------|
D|-----------------|-----------------|-----------------|-----------------|
A|-0~~~----------0~|~--0-0~~~------0-|-0~~~----------0~|~--0-------------|
E|-----------------|-----------------|-----------------|-----------------|

finish break 2 with
G|-----------------|                                          |-------------|
D|-----------------|                                          |-------------|
A|-0---------------|                                          |-------------|
E|-----------------| rest for 6 bars and go into break 3 with |-----------1-|

Break 3 -                               |                 X2                |
G|-----------------|-----------------|X4|-----------------|-----------------|
D|-----------------|-----------------|X4|-----------------|-----------------|
A|-0-0-0-0-0-0-0-0-|-0-0-0-0-0-0-1---|X4|-0~~~------------|-------------1---|
E|-----------------|-----------------|X4|-----------------|-----------------|
                                        |                 X2                |
G|-----------------|-----------------|X2|-----------------|-----------------|
D|-----------------|-----------------|X2|-----------------|-----------------|
A|-0-0-0-0-0-0-0-0-|-0-0-0-0-0-0-1---|X2|-0~~~------------|-------------1---|
E|-----------------|-----------------|X2|-----------------|-----------------|

G|-----------------|-----------------|
D|-----------------|-----------------|
A|-0-0-0-0-0-0-0-0-|-0-0-0-0-0-0-1---|
E|-----------------|-----------------|

Final Chorus? - X2
G|-----------------|-----------------|-----------------|-----------------|
D|-----------------|-----------------|-----------------|-----------------|
A|-0-0-0-0-0-0-0-0-|-0-0-0-0-0-0-1-1-|-3-3-3-3-3-3-3-3-|-1-1-1-1-1-1-1-1-|
E|-----------------|-----------------|-----------------|-----------------|

Outro - X2
G|-----------------|-----------------|-----------------|-----------------|
D|-----------------|-----------------|-----------------|-----------------|
A|-0---------------|-----------------|-----------------|-----------------|
E|-----------------|-------------3---|-1~~~~-----------|-----------------|

G|-----------------|-----------------|-----------------|-----------------|
D|-----------------|-----------------|-----------------|-----------------|
A|-5~~~~-----------|-------------3---|-2~~~~-----------|-----------------|
E|-----------------|-----------------|-----------------|-----------------|

end with
G|-----------------|
D|-----------------|
A|-0---------------|
E|-----------------|

thats it, enjoy, sorry for the length, just not a very repetitive song. 
comments
We did not receive enough feedback on this tab! Please rate:
print report bad tab
1 2 3 4 5
I want to post or [tab]
guest
You may want to rate the tab now too:
select rating
Please do not post tabs as comments. Select "correction" instead!